Oops, an error
Loading. Please wait.

Eagleheart Tab

version 1
version 1

Whole song

Interactive

16,048 views 30 this week
4 commentsread comments
1 2 3 4 5
x 5
add to favorites
launch autoscroll
font size
0
reset
how to read this tab
guitar tuner
Autoscroll
slow
fast
+/-
esc
set tempo
stop
Help us to improve Ultimate-Guitar.com Take our survey!
×
Author
Difficulty
intermediate
Stratovarius: Eagleheart
 Tabbed by Peter Farago, peti137@citromail.hu

I didn't find the complete tab of Eagleheart, and I think it's OK. If You find any 
please mail me!

Tune half step down

Intro:

Solo guitar

e|--------------------------------------------------------------------------------------|
B|----------12-12----------------------------12-----------------------------------------|
G|-12/13-13-------14-13--11-11-14-14-13-11-------14-13-11----13-14-13-11--13h14p13p11---|
D|-----------------------------------------14-------------14----------------------------|
A|--------------------------------------------------------------------------------------|
E|--------------------------------------------------------------------------------------|


e|-------------------------------------------------------------------------------------|
B|----------12-12---------------------------12-----------------------------------------|
G|-12/13-13-------14-13-11-11-14-14-13-11-------14-13-11--------13-11-9===-------------|
D|---------------------------------------14--------------14-14==-----------------------|
A|-------------------------------------------------------------------------------------|
E|-------------------------------------------------------------------------------------|

Rhytm guitar

e|------------------------------------|
B|------------------------------------|
G|-6-----------------------------4----|
D|-6----7----9----6----7----2----4----|
A|-4----7----9----6----7----2----2----|
E|------5----7----4----5----0---------|


e|----------------------------------------------------------------------------------------------------------------|
B|----------------------------------------------------------------------------------------------------------------|
G|-6-----6-----6-----------------------------------------------------------------------------------9===-9/8/6===--|
D|-6-----6-----6---7-----7-----7---9-----9-----9---6-----6-----6---7-----7-----7---9-----9-----9---7===-----------|
A|-4-4-4-4-4-4-4-4-7-----7-----7---9-----9-----9---6-----6-----6---7-----7-----7---9-----9-----9---7===-7/6/4===--|
E|-----------------5-5-5-5-5-5-5-5-7-7-7-7-7-7-7-7-4-4-4-4-4-4-4-4-5-5-5-5-5-5-5-5-7-7-7-7-7-7-7-7----------------|
  P.M. .   . .   .   . .   . .   .   . .   . .   .   . .   . .   .   . .   . .   .   . . 
 . .   .

Verse 1

e|-----------------------------------------------------|
B|-----------------------------------------------------|
G|----9===-9/8/6---------------------------------9/8---|
D|----7===----------2----7--------------------9--------|
A|----7===-7/6/4----2----7--------------------9--7/6---|
E|------------------0----5----7-7-7-7-7-7-7-7-7--------|
                           P.M. . . . . . . .

Chorus


e|------------------------------------|
B|------------------------------------|
G|-6-----------------------------4----|
D|-6----7----9----6----7----2----4----|
A|-4----7----9----6----7----2----2----|
E|------5----7----4----5----0---------|


e|----------------------------------------------------------------------------------------------------------------|
B|----------------------------------------------------------------------------------------------------------------|
G|-6-----6-----6-----------------------------------------------------------------------------------9===-9/8/6===--|
D|-6-----6-----6---7-----7-----7---9-----9-----9---6-----6-----6---7-----7-----7---9-----9-----9---7===-----------|
A|-4-4-4-4-4-4-4-4-7-----7-----7---9-----9-----9---6-----6-----6---7-----7-----7---9-----9-----9---7===-7/6/4===--|
E|-----------------5-5-5-5-5-5-5-5-7-7-7-7-7-7-7-7-4-4-4-4-4-4-4-4-5-5-5-5-5-5-5-5-7-7-7-7-7-7-7-7----------------|
  P.M. .   . .   .   . .   . .   .   . .   . .   .   . .   . .   .   . .   . .   .   . . 
 . .   .


Solo:

Solo guitar

e|-12----------------------------------------12-14-16-12-------------------------------------12-14-19--17-17-16-16-14-14-12-11-|
B|----16-14----------------------------14-16-------------14----------------------------14-16-----------------------------------|
G|----------13----------------------13----------------------13----------------------13-----------------------------------------|
D|-------------14-13----------13-14----------------------------14-13----------13-14--------------------------------------------|
A|-------------------16-15-16----------------------------------------16-15-16--------------------------------------------------|
E|-----------------------------------------------------------------------------------------------------------------------------|

e|-12----------------------------------------12-14-16-12-------------------------------------12-14-19-19-21-16-16-19-14-14-16-12-11-12-14-11-12==-|
B|----16-14----------------------------14-16-------------14----------------------------14-16------------------------------------------------------|
G|----------13----------------------13----------------------13----------------------13------------------------------------------------------------|
D|-------------14-13----------13-14----------------------------14-13----------13-14---------------------------------------------------------------|
A|-------------------16-15-16----------------------------------------16-15-16---------------------------------------------------------------------|
E|------------------------------------------------------------------------------------------------------------------------------------------------|


Rhytm guitar

e|------------------|
B|------------------|
G|-6---------6------|
D|-6----7----6----7-|
A|-4----7----4----7-|
E|------5---------5-|


Verse 2

e|------------------------------------|
B|------------------------------------|
G|------------------------------9/8---|
D|-2----7--------------------9--------|
A|-2----7--------------------9--7/6---|
E|-0----5----7-7-7-7-7-7-7-7-7--------|
          P.M. . . . . . . .


Chorus 2x

e|------------------------------------|
B|------------------------------------|
G|-6-----------------------------4----|
D|-6----7----9----6----7----2----4----|
A|-4----7----9----6----7----2----2----|
E|------5----7----4----5----0---------|


e|-----------------------------------------------------------------------------------------------------------|
B|-----------------------------------------------------------------------------------------------------------|
G|-6-----6-----6-----------------------------------------------------------------------------------9===-9/8--|
D|-6-----6-----6---7-----7-----7---9-----9-----9---6-----6-----6---7-----7-----7---9-----9-----9---7===------|
A|-4-4-4-4-4-4-4-4-7-----7-----7---9-----9-----9---6-----6-----6---7-----7-----7---9-----9-----9---7===-7/6--|
E|-----------------5-5-5-5-5-5-5-5-7-7-7-7-7-7-7-7-4-4-4-4-4-4-4-4-5-5-5-5-5-5-5-5-7-7-7-7-7-7-7-7-----------|
  P.M. .   . .   .   . .   . .   .   . .   . .   .   . .   . .   .   . .   . .   .   . . 
 . .   .


Outro:

Solo guitar

e|--------------------------------------------------------------------------------------|
B|----------12-12----------------------------12-----------------------------------------|
G|-12/13-13-------14-13--11-11-14-14-13-11-------14-13-11----13-14-13-11--13h14p13p11---|
D|-----------------------------------------14-------------14----------------------------|
A|--------------------------------------------------------------------------------------|
E|--------------------------------------------------------------------------------------|


e|-------------------------------------------------------------------------------------|
B|----------12-12---------------------------12-----------------------------------------|
G|-12/13-13-------14-13-11-11-14-14-13-11-------14-13-11--------13-11------------------|
D|---------------------------------------14--------------14-14==-----------------------|
A|-------------------------------------------------------------------------------------|
E|-------------------------------------------------------------------------------------|


e|-15/16-16-19-19-17-16-------17-17-16-------19-17-16-------16-17-16-14--16h17p16p14---|
B|----------------------19-19----------19-17----------19-17----------------------------|
G|-------------------------------------------------------------------------------------|
D|-------------------------------------------------------------------------------------|
A|-------------------------------------------------------------------------------------|
E|-------------------------------------------------------------------------------------|

e|-15/16-16-19-19-17-16-------17-17-16-------19-17-16------------16-14---|
B|----------------------19-19----------19-17----------19-17-17==---------|
G|-----------------------------------------------------------------------|
D|-----------------------------------------------------------------------|
A|-----------------------------------------------------------------------|
E|-----------------------------------------------------------------------|


Rhytm guitar x2

e|------------------------------------|
B|------------------------------------|
G|-6-----------------------------4----|
D|-6----7----9----6----7----2----4----|
A|-4----7----9----6----7----2----2----|
E|------5----7----4----5----0---------|


e|-----------------------------------------------------------------------------------------------------------|
B|-----------------------------------------------------------------------------------------------------------|
G|-6-----6-----6-----------------------------------------------------------------------------------9===-9/8--|
D|-6-----6-----6---7-----7-----7---9-----9-----9---6-----6-----6---7-----7-----7---9-----9-----9---7===------|
A|-4-4-4-4-4-4-4-4-7-----7-----7---9-----9-----9---6-----6-----6---7-----7-----7---9-----9-----9---7===-7/6--|
E|-----------------5-5-5-5-5-5-5-5-7-7-7-7-7-7-7-7-4-4-4-4-4-4-4-4-5-5-5-5-5-5-5-5-7-7-7-7-7-7-7-7-----------|
  P.M. .   . .   .   . .   . .   .   . .   . .   .   . .   . .   .   . .   . .   .   . . 
 . .   .

P.M. = palm mute
/ = slide up
\ = slide down
h = hammer on
p = pull off
Suggest correction
comments
print report bad tab
4 comments total. Showing first comments.
0 reply
Vidzge 226 Dec 18, 2006 06:43 AM

Nice work,but this is ****et dificulty tab for me.
Just goahead!!

0 reply
humbucker22 10 Nov 23, 2008 01:03 PM

ilove the solo.awesome tab btw

0 reply
farago peter 52 Jan 14, 2009 12:39 PM

thank you!
Enjoy!:)

guest
You may want to rate the tab now too:
select rating
Wanna post a correction for this tab? Suggest correction