Oops, an error
Loading. Please wait.

Elysium Tab

version 1
version 1

Intro

Interactive

1,127 views 3 this week
2 commentsread comments
1 2 3 4 5
3 more votes to show rating
add to favorites
launch autoscroll
font size
0
reset
how to read this tab
guitar tuner
Autoscroll
slow
fast
+/-
esc
set tempo
stop
Help us to improve Ultimate-Guitar.com Take our survey!
×
Author
e|--------------------------------------------------------------------------6-|
B|------7---6-------------7----6-------------7---6-------------7----6--7p6----|
G|------------6------------------6-----------------6----------------------6---|
D|----8---8-----8-------9---9------9-------8---8-----8-------9---9------------|
A|--6-----------------6------------------6-----------------6------------------|
E|----------------------------------------------------------------------------|

-------------------------------------------------------------------------|
------7---6--------------7----6---------------7-------6-------------4----|
------------6-------------------6-----------6-------6-------------3------|
----8---8-----8--------8---9------9-------9-------6---------1-3-4--------|
--6-----------------6---------------8---9-------8------------------------|
-------------------------------------------------------------------------|
Suggest correction
Give kudos to tab author, rate the tab!
1 2 3 4 5
comments
print report bad tab
2 comments total.
0 reply
alessandro_ 21 Feb 12, 2013 12:25 PM

e|--------------------------------------------------------------------------6-|
B|------7---6-------------7----6-------------7---6-------------7----6--7p6----|
G|------------6------------------6-----------------6----------------------6---|
D|----8---8-----8-------9---9------9-------8---8-----8-------9---9------------|
A|--6-----------------6------------------6-----------------6------------------|
E|----------------------------------------------------------------------------|

-------------------------------------------------------------------------|
------7---6--------------7----6---------------7-------6-------------4----|
------------6-------------------6-----------6-------6-------------3------|
----8---8-----8--------9---9------9-------8-------6---------1-3-4--------|
--6-----------------6---------------8---9-------8------------------------|
-------------------------------------------------------------------------|

0 reply
marcusbelmont 10 Apr 16, 2016 08:11 PM

guest
You may want to rate the tab now too:
select rating
Wanna post a correction for this tab? Suggest correction