Oops, an error
Loading. Please wait.

Maniac Dance Tab

version 2
version 2

Whole song

Interactive

1,641 views 1 this week
no commentswrite comment
1 2 3 4 5
2 more votes to show rating
add to favorites
launch autoscroll
font size
0
reset
how to read this tab
guitar tuner
Autoscroll
slow
fast
+/-
esc
set tempo
stop
Help us to improve Ultimate-Guitar.com Take our survey!
×
Author
Difficulty
novice
Song: Maniac dance by  stratovarious

Album: Startovarious (2005)

|---------------------------|----------------------------|
|---------------------------|----------------------------|
|---------------------------|----------------------------|
|---------------------5-----|----------------------------|
|-7-7p5-7-7p5-7-7p5-7---7-5-|-7-7p5-7-7p5-7-7p5----------|
|---------------------------|--------------------7-6-5-3-|


|---------------------------|-------------------------|
|---------------------------|-------------------------|
|---------------------------|-------------------------|
|---------------------5-----|-------------------------|
|-7-7p5-7-7p5-7-7p5-7---7-5-|-7-5---5-----------------|
|---------------------------|-----7---7-6-5-3-6-5-3-0-|


     This year has been a nightmare                 
|----------------------------------------------|
|----------------------------------------------|
|---------------------------------7-7/9--------|
|-2-------------------------------7-7/9--------|
|-2-------------------------------5-5/7--------|
|-0-0----0--0--0--0----0--0--0--0--------------|
    |••••••••••PM•••••••••••••••|

I've been so low, I don't care
|--------------------------------------------|
|--------------------------------------------|
|-----------------------------7-7/9----------|
|-----------------------------7-7/9----------|
|-----------------------------5-5/7----------|
|--0--0--0--0--0----0--0--0------------------|
   |••••••••PM•••••••••••|

I've dwelled in depths of darkness
|--------------------------------------------|
|--------------------------------------------|
|--------------------------------------------|
|--------------------------------------------|
|--------------------------------------------|
|--0--0--0--0--0----0--0--0--0--0--0--0------|
  |•••••••••••••••PM••••••••••••••••••••|

Swam across the ocean of pain
|-------------------------------------------|
|-------------------------------------------|
|-------------------------------------------|
|--------------------------------5/3--------|
|--------------------------------5/3--------|
|--0--0--0--0--0----0--0--0--0---3/5--------|
   |•••••••••••PM•••••••••••••|

I've fed the tabloids, the media
|--------------------------------------------|
|--------------------------------------------|
|--------------------------------------------|
|-----------------------------5-5/3----------|
|-----------------------------5-5/3----------|
|--5--5--5--5--5--5--5--5--5--3-3/5----------|
  |••••••••••PM•••••••••••••|

It's a bottomless pit, a redia
|-------------------------------------------|
|-------------------------------------------|
|-------------------------------------------|
|-----------------------5---5---5-2---------|
|-----------------------5---5---5-2---------|
|--5--5--5--5--5--5-----3---3---3-0---------|
  |•••••••PM•••••••|

Front pages, gossips, knifings, drunken nights and days
|---------------------------------------------------------------|
|---------------------------------------------------------------|
|---------------------------------------------------------------|
|-----------------------------7/9-------------------------------|
|-----------------------------5/7-------------------------------|
|--0--0---0--0--0--0--0--0--0-----0--0--0--0--0--0--0--0--0--0--|
  |••••••••••PM•••••••••••••|     |••••••••••••PM••••••••••••|

Sadness, rage, hopelessness I am nothing without you
|---------------------------------------------|
|---------------------------------------------|
|---------------------------------------------|
|--4------(4)/7---------(7)7-------(7)7-------|
|--2------(2)/5---------(5)5-------(5)5-------|
|---------------------------------------------|

  Again the danceeeee             I do the maniac dance 
|-------------------------------------|----------------------------|
|-------------------------------------|----------------------------|
|-------------------------------------|----------------------------|
|-8--7--6----------------------5------|----------------------------|
|-8--7--6--7-7p5-7-7p5-7-7p5-7---7-5--|-7-7p5-7-7p5-7-7p5----------|
|-6--5--4-----------------------------|--------------------7-6-5-3-|

 Just like in trance     I do the maniac dance
|----------------------------|-------------------------|
|----------------------------|-------------------------|
|----------------------------|-------------------------|
|---------------------5------|-------------------------|
|-7-7p5-7-7p5-7-7p5-7---7-5--|-7-5---5-----------------|
|----------------------------|-----7---7-6-5-3-6-5-3-0-|



This demon serves me well
|----------------------------------------------|
|----------------------------------------------|
|---------------------------------7-7/9--------|
|-2-------------------------------7-7/9--------|
|-2-------------------------------5-5/7--------|
|-0-0----0--0--0--0----0--0--0--0--------------|
   |••••••••••PM••••••••••••••••|

It wants to send me to the depths of hell
|----------------------------------------------------|
|----------------------------------------------------|
|--------------------------------------------7-7/9---|
|--------------------------------------------7-7/9---|
|--------------------------------------------5-5/7---|
|--0--0--0--0--0----0--0--0--0--0--0--0--0-----------|
   |••••••••••••••••PM••••••••••••••••••••|

A roller coaster ride it has been I can't tell
|-----------------------------------------------------------|
|-----------------------------------------------------------|
|-----------------------------------------------------------|
|-------------------------------------------------5-5/3-----|
|-------------------------------------------------5-5/3-----|
|--0--0--0--0--0-0--0--0--0--0--0--0--0--0--0--0--3-3/5-----|
   |•••••••••••••••••••PM•••••••••••••••••••••••|

I'm a walking miracle of medicine
|--------------------------------------------|
|--------------------------------------------|
|--------------------------------------------|
|-----------------------------5-5/3----------|
|-----------------------------5-5/3----------|
|--5--5--5--5--5--5--5--5--5--3-3/5----------|
|••••••••••••••••PM••••••••••••••••••••|

A real catastrophe on lee-eeegs
|-------------------------------------------|
|-------------------------------------------|
|-------------------------------------------|
|-----------------------5---5---5-2---------|
|-----------------------5---5---5-2---------|
|--5--5--5--5--5--5-----3---3---3-0---------|
  |•••••PM•••••••••|

A proud member of human race known as the dregs
|---------------------------------------------------------------|
|---------------------------------------------------------------|
|---------------------------------------------------------------|
|-----------------------------7/9-------------------------------|
|-----------------------------5/7-------------------------------|
|--0--0---0--0--0--0--0--0--0-----0--0--0--0--0--0--0--0--0--0--|
   |•••••••••PM•••••••••••••|    |•••••••••••PM••••••••••••••••|


|---------------------------------------------|
|---------------------------------------------|
|---------------------------------------------|
|--4------(4)/7------------7----------7-------|
|--2------(2)/5------------5----------5-------|
|---------------------------------------------|


  Again the danceeeee       I do the maniac dance 
|-------------------------------------|----------------------------|
|-------------------------------------|----------------------------|
|-------------------------------------|----------------------------|
|-8--7--6----------------------5------|----------------------------|
|-8--7--6--7-7p5-7-7p5-7-7p5-7---7-5--|-7-7p5-7-7p5-7-7p5----------|
|-6--5--4-----------------------------|--------------------7-6-5-3-|

 Just like in trance      I do the maniac dance
|----------------------------|-------------------------|
|----------------------------|-------------------------|
|----------------------------|-------------------------|
|---------------------5------|-------------------------|
|-7-7p5-7-7p5-7-7p5-7---7-5--|-7-5---5-----------------|
|----------------------------|-----7---7-6-5-3-6-5-3-0-|



tabbed by abhammer esquivel
corrections and comments are welcome =)
Suggest correction
Give kudos to tab author, rate the tab!
1 2 3 4 5
comments
print report bad tab
guest
You may want to rate the tab now too:
select rating
Wanna post a correction for this tab? Suggest correction