Oops, an error
Loading. Please wait.

Phoenix tab

version 2
version 2

Whole song

Interactive

1,420 views 3 this week
no commentswrite comment
1 2 3 4 5
1 last vote to show rating
add to favorites
×
Save as Personal and add changes to this tab that will be seen only by you. Learn more ›
×
You can save this tab as Personal to edit and correct it or add notes. All changes will be seen only by you. Learn more »
launch autoscroll
font size
0
reset
how to read this tab
guitar tuner
backing track
0:00
0:00
edit
Autoscroll
slow
fast
+/-
esc
set tempo
stop
#----------------------------------PLEASE NOTE---------------------------------#
#This file is the author's own work and represents their interpretation of the #
#song. You may only use this file for private study, scholarship, or research. #
#------------------------------------------------------------------------------#

PHOENIX
As recorded by Stratovarius
(From the 2000 Album INFINITE)

Transcribed by Jerich Rosales
        

Words and Music by Stratovarius
Arranged by Stratovarius

Gtr I (D# G# C# F# A# D#) - 'Lead'
Gtr II (D# G# C# F# A# D#) - 'Keyboard'
Gtr III (D# G# C# F# A# D#) - 'Synth Choir(Keyboard)'

   Main Theme
    Q=151
      N.C.
   4/4
    Gtr I
       PM|     PM|                PM|     PM|
    E  S S E E S S  E  E S S    E S S E E S S E E  S S
||---------------------------|-------------------------|
||o--------------------------|-------------------------|
||---------------------------|-------------------------|
||---------9-9-----10-10-7-9-|-10-----9-9-----7-7------|
||o----7-7-----7-7-----------|----7-7-----7-7-----10-9-|
||---------------------------|-------------------------|


    PM|     PM|
  E S S E E S S  E  E S S    E S S S S S S S S S S S S E
|-------------------------|-------------------------------||
|-------------------------|------------------------------o||
|-------------------------|-------------------------------||
|-------9-9-----10-10-7-9-|-10-9-7-5---7-5-----5----------||
|-7-7-7-----7-7-----------|----------9-----9-7---9-7-6-7-o||
|-------------------------|-------------------------------||


      PM|     PM|                PM|     PM|
    E S S E E S S  E  E S S    E S S E E S S E E  S S
||--------------------------|-------------------------|
||o-------------------------|-------------------------|
||--------------------------|-------------------------|
||--------9-9-----10-10-7-9-|-10-----9-9-----7-7------|
||o---7-7-----7-7-----------|----7-7-----7-7-----10-9-|
||--------------------------|-------------------------|
|
|   Gtr II
|   PM
|   E S S E E S S  E  E S S    E S S E E S S E E  S S
||--------------------------|-------------------------|
||o-------------------------|-------------------------|
||--------------------------|-------------------------|
||--------9-9-----10-10-7-9-|-10-----9-9-----7-7------|
||o---7-7-----7-7-----------|----7-7-----7-7-----10-9-|
||--------------------------|-------------------------|


    PM|     PM|
  E S S E E S S  E  E S S    E S S S S S S S S S S S S E
|-------------------------|----------------------------------||
|-------------------------|---------------------------------o||
|-------------------------|----------------------------------||
|-------9-9-----10-10-7-9-|-10-9-7-5---7-5-----5-------------||
|-7-7-7-----7-7-----------|----------9-----9-7---9-7-6-7----o||
|-------------------------|----------------------------------||
|
| E S S E E S S  E  E S S    E S S S S S S S S S S S S E
|-------------------------|----------------------------------||
|-------------------------|---------------------------------o||
|-------------------------|----------------------------------||
|-------9-9-----10-10-7-9-|-10-9-7-5---7-5-----5-------------||
|-7-7-7-----7-7-----------|----------9-----9-7---9-7-6-7----o||
|-------------------------|----------------------------------||


      D5                       C5 Bb5
                                                          2/4
    E H..         +W           Q  E Q  Q.     +W           +H
||--------------|------------|--------------|------------|---------||
||o-------------|------------|--------------|------------|--------o||
||----7---------|-(7)--------|-5--3-3--3----|-(3)--------|-(3)-----||
||----7---------|-(7)--------|-5--3-3--3----|-(3)--------|-(3)-----||
||o---5---------|-(5)--------|-3--1-1--1----|-(1)--------|-(1)----o||
||--------------|------------|--------------|------------|---------||


 Pre-Chorus
  C5                      Bb5
 4/4
  W          +W           W          +W
|----------|------------|----------|------------|
|----------|------------|----------|------------|
|-5--------|-(5)--------|-3--------|-(3)--------|
|-5--------|-(5)--------|-3--------|-(3)--------|
|-3--------|-(3)--------|-1--------|-(1)--------|
|----------|------------|----------|------------|


  F5                      C5
  W          +W           W          +W
|----------|------------|----------|--------|
|----------|------------|----------|--------|
|----------|------------|-5--------|-(5)----|
|-3--------|-(3)--------|-5--------|-(5)----|
|-3--------|-(3)--------|-3--------|-(3)----|
|-1--------|-(1)--------|----------|--------|


      D5                       C5 Bb5
                                                          2/4
    E H..         +W           Q  E Q  Q.     +W           +H
||--------------|------------|--------------|------------|---------||
||o-------------|------------|--------------|------------|--------o||
||----7---------|-(7)--------|-5--3-3--3----|-(3)--------|-(3)-----||
||----7---------|-(7)--------|-5--3-3--3----|-(3)--------|-(3)-----||
||o---5---------|-(5)--------|-3--1-1--1----|-(1)--------|-(1)----o||
||--------------|------------|--------------|------------|---------||


  C5                      Bb5                     F5
 4/4
  W          +W           W          +W           W          +W
|----------|------------|----------|------------|----------|--------|
|----------|------------|----------|------------|----------|--------|
|-5--------|-(5)--------|-3--------|-(3)--------|----------|--------|
|-5--------|-(5)--------|-3--------|-(3)--------|-3--------|-(3)----|
|-3--------|-(3)--------|-1--------|-(1)--------|-3--------|-(3)----|
|----------|------------|----------|------------|-1--------|-(1)----|


 Bridge
  N.C.
  S S S S S Q.   S S S S S   S S S S H.
|--------------------------|-----------------|
|--------------------------|-----------------|
|--------------------------|-----------------|
|--------------------------|-----------------|
|--------------------------|-----------------|
|-5-6-5-3-5------5-6-5-3-5-|-6-5-3-5---------|


  S S S S S Q.   S S S S S   S S S S H.
|--------------------------|---------------|
|--------------------------|---------------|
|--------------------------|---------------|
|--------------------------|---------------|
|--------------------------|---------------|
|-5-6-5-3-5------5-6-5-3-5-|-6-5-3-5-------|


  S S S S S Q.   S S S S S   S S S S H.
|--------------------------|-----------------|
|--------------------------|-----------------|
|--------------------------|-----------------|
|--------------------------|-----------------|
|--------------------------|-----------------|
|-7-8-7-5-7------7-8-7-5-7-|-8-7-5-7---------|


  S S S S S Q.   S S S S S   S S S S Q  S S S S S S S S
|--------------------------|-----------------------------|
|--------------------------|-----------------------------|
|--------------------------|-----------------------------|
|--------------------------|-----------------------------|
|--------------------------|------------2-3-2------------|
|-7-8-7-5-7------7-8-7-5-7-|-8-7-5-7----------5-3-5-3-2--|


 Chorus
  E5         A5         D5         E5
  W          W          W          W
|----------|----------|----------|----------|
|----------|----------|----------|----------|
|----------|----------|-7--------|-9--------|
|-2--------|-7--------|-7--------|-9--------|
|-2--------|-7--------|-5--------|-7--------|
|-0--------|-5--------|----------|----------|


  C5         G/C#                     B5
  W          W          Q  Q  Q  Q    W
|----------|----------|-------------|------|
|----------|----------|-------------|------|
|-5--------|-0--------|-------------|-4----|
|-5--------|-5--------|-------------|-4----|
|-3--------|-4--------|-2-----------|-2----|
|----------|----------|----5--3--2--|------|


  E5                              A5
  Gtr I
  E S S S S S S S S S S S S S S   E S S S S S S S S S S S S S S
|-------------------------------|-------------------------------|
|-------------------------------|-------------------------------|
|-4-----------------------------|-------------------------------|
|-2-2-2-2-2-2-2-2-2-2-2-2-2-2-2-|-5-----------------------------|
|-------------------------------|-3-3-3-3-3-3-3-3-3-3-3-3-3-3-3-|
|-------------------------------|-------------------------------|
|
| Gtr II
| W                               W
|-------------------------------|-------------------------------|
|-------------------------------|-------------------------------|
|-------------------------------|-------------------------------|
|-2-----------------------------|-7-----------------------------|
|-2-----------------------------|-7-----------------------------|
|-0-----------------------------|-5-----------------------------|


  D5                              E5
  E S S S S S S S S S S S S S S   E S S S S S S S S S S S S S S
|-------------------------------|--------------------------------|
|-------------------------------|--------------------------------|
|-2-----------------------------|-4------------------------------|
|-0-0-0-0-0-0-0-0-0-0-0-0-0-0-0-|-2-2-2-2-2-2-2-2-2-2-2-2-2-2-2--|
|-------------------------------|--------------------------------|
|-------------------------------|--------------------------------|
|
| W                               W
|-------------------------------|--------------------------------|
|-------------------------------|--------------------------------|
|-7-----------------------------|-9------------------------------|
|-7-----------------------------|-9------------------------------|
|-5-----------------------------|-7------------------------------|
|-------------------------------|--------------------------------|


  C5                              G/C#
  E S S S S S S S S S S S S S S   E S S S S S S S S S S S S S S
|-------------------------------|-------------------------------|
|-------------------------------|-------------------------------|
|-------------------------------|-------------------------------|
|-5-----------------------------|-5-----------------------------|
|-3-3-3-3-3-3-3-3-3-3-3-3-3-3-3-|-4-4-4-4-4-4-4-4-4-4-4-4-4-4-4-|
|-------------------------------|-------------------------------|
|
| W                               W
|-------------------------------|-------------------------------|
|-------------------------------|-------------------------------|
|-5-----------------------------|-0-----------------------------|
|-5-----------------------------|-5-----------------------------|
|-3-----------------------------|-4-----------------------------|
|-------------------------------|-------------------------------|


                                    B5
  PM--------------------------------------------------------------|
  S S S S S S S S S S S S S S S S   S S S S S S S S S S S S S S S S
|---------------------------------|------------------------------------|
|---------------------------------|------------------------------------|
|---------------------------------|------------------------------------|
|---------------------------------|-----------------1-1-1-1-4-4-4-4----|
|-2-2-2-2-------------------------|-2-2-2-2-3-3-3-3--------------------|
|---------5-5-5-5-3-3-3-3-2-2-2-2-|------------------------------------|
|
| Q       Q       Q       Q         W
|---------------------------------|------------------------------------|
|---------------------------------|------------------------------------|
|---------------------------------|-4----------------------------------|
|---------------------------------|-4----------------------------------|
|-2-------------------------------|-2----------------------------------|
|---------5-------3-------2-------|------------------------------------|


   Main Theme
      Q=151
      N.C.
      PM|     PM|                PM|     PM|
    E S S E E S S  E  E S S    E S S E E S S E E  S S
||--------------------------|-------------------------|
||o-------------------------|-------------------------|
||--------------------------|-------------------------|
||--------9-9-----10-10-7-9-|-10-----9-9-----7-7------|
||o---7-7-----7-7-----------|----7-7-----7-7-----10-9-|
||--------------------------|-------------------------|
|
|   E S S E E S S  E  E S S    E S S E E S S E E  S S
||--------------------------|-------------------------|
||o-------------------------|-------------------------|
||--------------------------|-------------------------|
||--------9-9-----10-10-7-9-|-10-----9-9-----7-7------|
||o---7-7-----7-7-----------|----7-7-----7-7-----10-9-|
||--------------------------|-------------------------|


    PM|     PM|
  E S S E E S S  E  E S S    E S S S S S S S S S S S S E
|-------------------------|----------------------------------||
|-------------------------|---------------------------------o||
|-------------------------|----------------------------------||
|-------9-9-----10-10-7-9-|-10-9-7-5---7-5-----5-------------||
|-7-7-7-----7-7-----------|----------9-----9-7---9-7-6-7----o||
|-------------------------|----------------------------------||
|
| E S S E E S S  E  E S S    E S S S S S S S S S S S S E
|-------------------------|----------------------------------||
|-------------------------|---------------------------------o||
|-------------------------|----------------------------------||
|-------9-9-----10-10-7-9-|-10-9-7-5---7-5-----5-------------||
|-7-7-7-----7-7-----------|----------9-----9-7---9-7-6-7----o||
|-------------------------|----------------------------------||


      D5                       C5 Bb5
                                                          2/4
    E H..         +W           Q  E Q  Q.     +W           +H
||--------------|------------|--------------|------------|---------||
||o-------------|------------|--------------|------------|--------o||
||----7---------|-(7)--------|-5--3-3--3----|-(3)--------|-(3)-----||
||----7---------|-(7)--------|-5--3-3--3----|-(3)--------|-(3)-----||
||o---5---------|-(5)--------|-3--1-1--1----|-(1)--------|-(1)----o||
||--------------|------------|--------------|------------|---------||


 Pre-Chorus
  C5                      Bb5                     F5
 4/4
  W          +W           W          +W           W          +W
|----------|------------|----------|------------|----------|--------|
|----------|------------|----------|------------|----------|--------|
|-5--------|-(5)--------|-3--------|-(3)--------|----------|--------|
|-5--------|-(5)--------|-3--------|-(3)--------|-3--------|-(3)----|
|-3--------|-(3)--------|-1--------|-(1)--------|-3--------|-(3)----|
|----------|------------|----------|------------|-1--------|-(1)----|


 Breakdown
  N.C.
  S S S S S Q.   S S S S S   S S S S H.
|--------------------------|-----------------|
|--------------------------|-----------------|
|--------------------------|-----------------|
|--------------------------|-----------------|
|--------------------------|-----------------|
|-5-6-5-3-5------5-6-5-3-5-|-6-5-3-5---------|


  S S S S S Q.   S S S S S   S S S S H.
|--------------------------|---------------|
|--------------------------|---------------|
|--------------------------|---------------|
|--------------------------|---------------|
|--------------------------|---------------|
|-5-6-5-3-5------5-6-5-3-5-|-6-5-3-5-------|


  S S S S S Q.   S S S S S   S S S S H.
|--------------------------|-----------------|
|--------------------------|-----------------|
|--------------------------|-----------------|
|--------------------------|-----------------|
|--------------------------|-----------------|
|-7-8-7-5-7------7-8-7-5-7-|-8-7-5-7---------|


  S S S S S Q.   S S S S S   S S S S Q  S S S S S S S S
|--------------------------|-----------------------------|
|--------------------------|-----------------------------|
|--------------------------|-----------------------------|
|--------------------------|-----------------------------|
|--------------------------|------------2-3-2------------|
|-7-8-7-5-7------7-8-7-5-7-|-8-7-5-7----------5-3-5-3-2--|


 Chorus
  E5         A5         D5         E5
  W          W          W          W
|----------|----------|----------|----------|
|----------|----------|----------|----------|
|----------|----------|-7--------|-9--------|
|-2--------|-7--------|-7--------|-9--------|
|-2--------|-7--------|-5--------|-7--------|
|-0--------|-5--------|----------|----------|


  C5         G/C#                     B5
  W          W          Q  Q  Q  Q    W
|----------|----------|-------------|------|
|----------|----------|-------------|------|
|-5--------|-0--------|-------------|-4----|
|-5--------|-5--------|-------------|-4----|
|-3--------|-4--------|-2-----------|-2----|
|----------|----------|----5--3--2--|------|


  E5                              A5
  Gtr I
  E S S S S S S S S S S S S S S   E S S S S S S S S S S S S S S
|-------------------------------|-------------------------------|
|-------------------------------|-------------------------------|
|-4-----------------------------|-------------------------------|
|-2-2-2-2-2-2-2-2-2-2-2-2-2-2-2-|-5-----------------------------|
|-------------------------------|-3-3-3-3-3-3-3-3-3-3-3-3-3-3-3-|
|-------------------------------|-------------------------------|
|
| Gtr II
| W                               W
|-------------------------------|-------------------------------|
|-------------------------------|-------------------------------|
|-------------------------------|-------------------------------|
|-2-----------------------------|-7-----------------------------|
|-2-----------------------------|-7-----------------------------|
|-0-----------------------------|-5-----------------------------|


  D5                              E5
  E S S S S S S S S S S S S S S   E S S S S S S S S S S S S S S
|-------------------------------|--------------------------------|
|-------------------------------|--------------------------------|
|-2-----------------------------|-4------------------------------|
|-0-0-0-0-0-0-0-0-0-0-0-0-0-0-0-|-2-2-2-2-2-2-2-2-2-2-2-2-2-2-2--|
|-------------------------------|--------------------------------|
|-------------------------------|--------------------------------|
|
| W                               W
|-------------------------------|--------------------------------|
|-------------------------------|--------------------------------|
|-7-----------------------------|-9------------------------------|
|-7-----------------------------|-9------------------------------|
|-5-----------------------------|-7------------------------------|
|-------------------------------|--------------------------------|


  C5                              G/C#
  E S S S S S S S S S S S S S S   E S S S S S S S S S S S S S S
|-------------------------------|-------------------------------|
|-------------------------------|-------------------------------|
|-------------------------------|-------------------------------|
|-5-----------------------------|-5-----------------------------|
|-3-3-3-3-3-3-3-3-3-3-3-3-3-3-3-|-4-4-4-4-4-4-4-4-4-4-4-4-4-4-4-|
|-------------------------------|-------------------------------|
|
| W                               W
|-------------------------------|-------------------------------|
|-------------------------------|-------------------------------|
|-5-----------------------------|-0-----------------------------|
|-5-----------------------------|-5-----------------------------|
|-3-----------------------------|-4-----------------------------|
|-------------------------------|-------------------------------|


                                    B5
  PM--------------------------------------------------------------|
  S S S S S S S S S S S S S S S S   S S S S S S S S S S S S S S S S
|---------------------------------|------------------------------------|
|---------------------------------|------------------------------------|
|---------------------------------|------------------------------------|
|---------------------------------|-----------------1-1-1-1-4-4-4-4----|
|-2-2-2-2-------------------------|-2-2-2-2-3-3-3-3--------------------|
|---------5-5-5-5-3-3-3-3-2-2-2-2-|------------------------------------|
|
| Q       Q       Q       Q         W
|---------------------------------|------------------------------------|
|---------------------------------|------------------------------------|
|---------------------------------|-4----------------------------------|
|---------------------------------|-4----------------------------------|
|-2-------------------------------|-2----------------------------------|
|---------5-------3-------2-------|------------------------------------|


   Main Theme
      Q=151
      N.C.
      PM|     PM|                PM|     PM|
    E S S E E S S  E  E S S    E S S E E S S E E  S S
||--------------------------|-------------------------|
||o-------------------------|-------------------------|
||--------------------------|-------------------------|
||--------9-9-----10-10-7-9-|-10-----9-9-----7-7------|
||o---7-7-----7-7-----------|----7-7-----7-7-----10-9-|
||--------------------------|-------------------------|
|
|   E S S E E S S  E  E S S    E S S E E S S E E  S S
||--------------------------|-------------------------|
||o-------------------------|-------------------------|
||--------------------------|-------------------------|
||--------9-9-----10-10-7-9-|-10-----9-9-----7-7------|
||o---7-7-----7-7-----------|----7-7-----7-7-----10-9-|
||--------------------------|-------------------------|


    PM|     PM|
  E S S E E S S  E  E S S    E S S S S S S S S S S S S E
|-------------------------|----------------------------------||
|-------------------------|---------------------------------o||
|-------------------------|----------------------------------||
|-------9-9-----10-10-7-9-|-10-9-7-5---7-5-----5-------------||
|-7-7-7-----7-7-----------|----------9-----9-7---9-7-6-7----o||
|-------------------------|----------------------------------||
|
| E S S E E S S  E  E S S    E S S S S S S S S S S S S E
|-------------------------|----------------------------------||
|-------------------------|---------------------------------o||
|-------------------------|----------------------------------||
|-------9-9-----10-10-7-9-|-10-9-7-5---7-5-----5-------------||
|-7-7-7-----7-7-----------|----------9-----9-7---9-7-6-7----o||
|-------------------------|----------------------------------||


 Guitar Break
  N.C.
  S S S S S Q.   S S S S S   S S S S H.        S S S S S Q.   S S S S S
|--------------------------|-----------------|--------------------------|
|--------------------------|-----------------|--------------------------|
|--------------------------|-----------------|--------------------------|
|--------------------------|-----------------|--------------------------|
|--------------------------|-----------------|--------------------------|
|-5-6-5-3-5------5-6-5-3-5-|-6-5-3-5---------|-3-4-3-1-3------3-4-3-1-3-|


  S S S S H.        S S S S S Q.   S S S S S   S S S S Q  S S S S S S S S
|-----------------|--------------------------|-----------------------------|
|-----------------|--------------------------|-----------------------------|
|-----------------|--------------------------|-----------------------------|
|-----------------|--------------------------|-----------------------------|
|-----------------|--------------------------|------------2-3-2------------|
|-4-3-1-3---------|-7-8-7-5-7------7-8-7-5-7-|-8-7-5-7----------5-3-5-3-2--|


    N.C.
   4/4
    PM----|     PM----|     PM----|        PM----------------------------|
    |--3--|     |--3--|     |--3--|        |--3--|     |------3-------|
    S. S. S. E. S. S. S. E. S. S. S. S   E S. S. S. E. S. S. S. S. S. S. S. T
||-------------------------------------|--------------------------------------|
||o------------------------------------|--------------------------------------|
||-------------------------------------|--------------------------------------|
||-------------------------------------|--------------------------------------|
||o------------------------------------|--------------------------------------|
||--0--0--0-----0--0--0-----0--0--0----|---0--0--0-----0--0--0--0--0--0--0----|


  PM----|     PM----|     PM----|        PM----------------------------|
  |--3--|     |--3--|     |--3--|        |--3--|     |------3-------|
  S. S. S. E. S. S. S. E. S. S. S. S   E S. S. S. E. S. S. S. S. S. S. S. T
|------------------------------------|-----------------------------------------|
|------------------------------------|-----------------------------------------|
|------------------------------------|-----------------------------------------|
|------------------------------------|-----------------------------------------|
|------------------------------------|-----------------------------------------|
|-0--0--0-----0--0--0-----0--0--0----|---0--0--0-----0--0--0--0--0--0--0-------|


  Gtr I
   PM----|     PM----|     PM----|           PM----------------------------|
   |--3--|     |--3--|     |--3--|           |--3--|     |------3-------|
   S. S. S. E. S. S. S. E. S. S. S. S     E  S. S. S. E. S. S. S. S. S. S. S. T
|-------------------------------------|-----------------------------------------|
|-------------------------------------|-----------------------------------------|
|-------------------------------------|-----------------------------------------|
|-------------------------------------|-----------------------------------------|
|-------------------------------------|-----------------------------------------|
|--0--0--0-----0--0--0-----0--0--0----|------0--0--0-----0--0--0--0--0--0--0----|
|
| Gtr III
|  W                                     +W
|-------------------------------------|-----------------------------------------|
|-------------------------------------|-----------------------------------------|
|-19----------------------------------|-(19)------------------------------------|
|-------------------------------------|-----------------------------------------|
|-------------------------------------|-----------------------------------------|
|-------------------------------------|-----------------------------------------|


   PM----|     PM----|     PM----|           PM----------------------------|
   |--3--|     |--3--|     |--3--|           |--3--|     |------3-------|
   S. S. S. E. S. S. S. E. S. S. S. S     E  S. S. S. E. S. S. S. S. S. S. S. T
|-------------------------------------|-------------------------------------------||
|-------------------------------------|------------------------------------------o||
|-------------------------------------|-------------------------------------------||
|-------------------------------------|-------------------------------------------||
|-------------------------------------|------------------------------------------o||
|--0--0--0-----0--0--0-----0--0--0----|------0--0--0-----0--0--0--0--0--0--0------||
|
|  W                                     +W
|-------------------------------------|-------------------------------------------||
|-------------------------------------|------------------------------------------o||
|-17----------------------------------|-(17)--------------------------------------||
|-------------------------------------|-------------------------------------------||
|-------------------------------------|------------------------------------------o||
|-------------------------------------|-------------------------------------------||


   PM----|     PM----|     PM----|        PM----------------------------|
   |--3--|     |--3--|     |--3--|        |--3--|     |------3-------|
   S. S. S. E. S. S. S. E. S. S. S. S   E S. S. S. E. S. S. S. S. S. S. S. T
|-------------------------------------|--------------------------------------|
|-------------------------------------|--------------------------------------|
|-------------------------------------|--------------------------------------|
|-------------------------------------|--------------------------------------|
|-------------------------------------|--------------------------------------|
|--0--0--0-----0--0--0-----0--0--0----|---0--0--0-----0--0--0--0--0--0--0----|
|
|  H                 H                  W
|-------------------------------------|--------------------------------------|
|-------------------------------------|--------------------------------------|
|-14----------------------------------|--------------------------------------|
|-------------------------------------|--------------------------------------|
|-------------------------------------|--------------------------------------|
|-------------------------------------|--------------------------------------|


  PM----|     PM----|     PM----|        PM----------------------------|
  |--3--|     |--3--|     |--3--|        |--3--|     |------3-------|
  S. S. S. E. S. S. S. E. S. S. S. S   E S. S. S. E. S. S. S. S. S. S. S. T
|------------------------------------|---------------------------------------|
|------------------------------------|---------------------------------------|
|------------------------------------|---------------------------------------|
|------------------------------------|---------------------------------------|
|------------------------------------|---------------------------------------|
|-0--0--0-----0--0--0-----0--0--0----|---0--0--0-----0--0--0--0--0--0--0-----|
|
| W                                    W
|------------------------------------|---------------------------------------|
|------------------------------------|---------------------------------------|
|------------------------------------|---------------------------------------|
|------------------------------------|---------------------------------------|
|------------------------------------|---------------------------------------|
|------------------------------------|---------------------------------------|


 Guitar Solo
  Q=135
  N.C.
  Q   Q   S  S  S  S  S  S  S  S    S  S  S  S  S  S  S  S  S  S  S  S  S  S  S  S
|-7s=19--19h20p17h19-15h17p14h15-|-12h14p12p11-------------------------------------|
|--------------------------------|-------------13p12p10h13p12p10----12p10-------10-|
|--------------------------------|-------------------------------12-------12p11----|
|--------------------------------|-------------------------------------------------|
|--------------------------------|-------------------------------------------------|
|--------------------------------|-------------------------------------------------|


                              Q=160
   S  S S  S  S S  S  S S   Q   S  S  S
|----------------------------------------|
|----------------------------------------|
|-12p11-9----11p9------------------------|
|---------14------14-10-9------------14h=|
|-------------------------/14--15-18-----|
|----------------------------------------|


   S  S  S  S  S  S  S  S  S  S  S  S  S  S  S  S
|-------------------------------------------------|
|----------------------------------------------13-|
|-------14h16h17p16p14----------------14h16h17----|
|-16h17----------------17p16p14h16h17-------------|
|-------------------------------------------------|
|-------------------------------------------------|


   S  S  S  S  S  S  S  S  S  S  S  S  S  S  S  S    S  S  S  S  S  S  S  S  S  S  S  S  S  S  S  S
|-------------------------------------15h17h19p17p|=15----------------15h17h19----------------------|
|-16h17p16-13----------------13-16s19-------------|----19p17p16h17h19----------19p17p16-16h17-17p16-|
|-------------17p16p14h16h17----------------------|-------------------------------------------------|
|-------------------------------------------------|-------------------------------------------------|
|-------------------------------------------------|-------------------------------------------------|
|-------------------------------------------------|-------------------------------------------------|


   S  S  S  S  S  S  S  S  S  S  S   S  S  S  S  S    W          Wx10
|--------------------------------------------15h17h|=19--------|---------|
|-16-13----------------------------/16-17h19-------|-----------|---------|
|-------17p16p14----------14h16h17-----------------|-----------|---------|
|----------------17p16h17--------------------------|-----------|---------|
|--------------------------------------------------|-----------|---------|
|--------------------------------------------------|-----------|---------|


    PM----|     PM----|     PM----|        PM----------------------------|
    |--3--|     |--3--|     |--3--|        |--3--|     |------3-------|
    S. S. S. E. S. S. S. E. S. S. S. S   E S. S. S. E. S. S. S. S. S. S. S. T
||-------------------------------------|--------------------------------------|
||o------------------------------------|--------------------------------------|
||-------------------------------------|--------------------------------------|
||-------------------------------------|--------------------------------------|
||o------------------------------------|--------------------------------------|
||--0--0--0-----0--0--0-----0--0--0----|---0--0--0-----0--0--0--0--0--0--0----|


                                                                                B5
  PM----|     PM----|     PM----|        PM----------------------------|
  |--3--|     |--3--|     |--3--|        |--3--|     |------3-------|
  S. S. S. E. S. S. S. E. S. S. S. S   E S. S. S. E. S. S. S. S. S. S. S. T     W          +W
|------------------------------------|---------------------------------------||----------|--------|
|------------------------------------|--------------------------------------o||----------|--------|
|------------------------------------|---------------------------------------||-4--------|-(4)----|
|------------------------------------|---------------------------------------||-4--------|-(4)----|
|------------------------------------|--------------------------------------o||-2--------|-(2)----|
|-0--0--0-----0--0--0-----0--0--0----|---0--0--0-----0--0--0--0--0--0--0-----||----------|--------|


 Out-Chorus
  E5         A5         D5         E5
  W          W          W          W
|----------|----------|----------|----------|
|----------|----------|----------|----------|
|----------|----------|-7--------|-9--------|
|-2--------|-7--------|-7--------|-9--------|
|-2--------|-7--------|-5--------|-7--------|
|-0--------|-5--------|----------|----------|


  C5         G/C#                     B5
  W          W          Q  Q  Q  Q    W
|----------|----------|-------------|------|
|----------|----------|-------------|------|
|-5--------|-0--------|-------------|-4----|
|-5--------|-5--------|-------------|-4----|
|-3--------|-4--------|-2-----------|-2----|
|----------|----------|----5--3--2--|------|


  E5                              A5
  Gtr I
  E S S S S S S S S S S S S S S   E S S S S S S S S S S S S S S
|-------------------------------|-------------------------------|
|-------------------------------|-------------------------------|
|-4-----------------------------|-------------------------------|
|-2-2-2-2-2-2-2-2-2-2-2-2-2-2-2-|-5-----------------------------|
|-------------------------------|-3-3-3-3-3-3-3-3-3-3-3-3-3-3-3-|
|-------------------------------|-------------------------------|
|
| Gtr II
| W                               W
|-------------------------------|-------------------------------|
|-------------------------------|-------------------------------|
|-------------------------------|-------------------------------|
|-2-----------------------------|-7-----------------------------|
|-2-----------------------------|-7-----------------------------|
|-0-----------------------------|-5-----------------------------|


  D5                              E5
  E S S S S S S S S S S S S S S   E S S S S S S S S S S S S S S
|-------------------------------|--------------------------------|
|-------------------------------|--------------------------------|
|-2-----------------------------|-4------------------------------|
|-0-0-0-0-0-0-0-0-0-0-0-0-0-0-0-|-2-2-2-2-2-2-2-2-2-2-2-2-2-2-2--|
|-------------------------------|--------------------------------|
|-------------------------------|--------------------------------|
|
| W                               W
|-------------------------------|--------------------------------|
|-------------------------------|--------------------------------|
|-7-----------------------------|-9------------------------------|
|-7-----------------------------|-9------------------------------|
|-5-----------------------------|-7------------------------------|
|-------------------------------|--------------------------------|


  C5                              G/C#
  E S S S S S S S S S S S S S S   E S S S S S S S S S S S S S S
|-------------------------------|-------------------------------|
|-------------------------------|-------------------------------|
|-------------------------------|-------------------------------|
|-5-----------------------------|-5-----------------------------|
|-3-3-3-3-3-3-3-3-3-3-3-3-3-3-3-|-4-4-4-4-4-4-4-4-4-4-4-4-4-4-4-|
|-------------------------------|-------------------------------|
|
| W                               W
|-------------------------------|-------------------------------|
|-------------------------------|-------------------------------|
|-5-----------------------------|-0-----------------------------|
|-5-----------------------------|-5-----------------------------|
|-3-----------------------------|-4-----------------------------|
|-------------------------------|-------------------------------|


                                    B5
  PM--------------------------------------------------------------|
  S S S S S S S S S S S S S S S S   S S S S S S S S S S S S S S S S
|---------------------------------|------------------------------------|
|---------------------------------|------------------------------------|
|---------------------------------|------------------------------------|
|---------------------------------|-----------------1-1-1-1-4-4-4-4----|
|-2-2-2-2-------------------------|-2-2-2-2-3-3-3-3--------------------|
|---------5-5-5-5-3-3-3-3-2-2-2-2-|------------------------------------|
|
| Q       Q       Q       Q         W
|---------------------------------|------------------------------------|
|---------------------------------|------------------------------------|
|---------------------------------|-4----------------------------------|
|---------------------------------|-4----------------------------------|
|-2-------------------------------|-2----------------------------------|
|---------5-------3-------2-------|------------------------------------|


   Main Theme
    Q=151
      N.C.
      PM|     PM|                PM|     PM|
    E S S E E S S  E  E S S    E S S E E S S E E  S S
||--------------------------|-------------------------|
||o-------------------------|-------------------------|
||--------------------------|-------------------------|
||--------9-9-----10-10-7-9-|-10-----9-9-----7-7------|
||o---7-7-----7-7-----------|----7-7-----7-7-----10-9-|
||--------------------------|-------------------------|
|
|   E S S E E S S  E  E S S    E S S E E S S E E  S S
||--------------------------|-------------------------|
||o-------------------------|-------------------------|
||--------------------------|-------------------------|
||--------9-9-----10-10-7-9-|-10-----9-9-----7-7------|
||o---7-7-----7-7-----------|----7-7-----7-7-----10-9-|
||--------------------------|-------------------------|


    PM|     PM|
  E S S E E S S  E  E S S    E S S S S S S S S S S S S E     4x
|-------------------------|----------------------------------||
|-------------------------|---------------------------------o||
|-------------------------|----------------------------------||
|-------9-9-----10-10-7-9-|-10-9-7-5---7-5-----5-------------||
|-7-7-7-----7-7-----------|----------9-----9-7---9-7-6-7----o||
|-------------------------|----------------------------------||
|
| E S S E E S S  E  E S S    E S S S S S S S S S S S S E     4x
|-------------------------|----------------------------------||
|-------------------------|---------------------------------o||
|-------------------------|----------------------------------||
|-------9-9-----10-10-7-9-|-10-9-7-5---7-5-----5-------------||
|-7-7-7-----7-7-----------|----------9-----9-7---9-7-6-7----o||
|-------------------------|----------------------------------||


  N.C.
   E S S S S S S S S S S S S E    E S S S S S S S S S S S S E
|------------------------------|------------------------------|
|------------------------------|------------------------------|
|------------------------------|------------------------------|
|-10-9-7-5---7-5-----5---------|-10-9-7-5---7-5-----5---------|
|----------9-----9-7---9-7-6-7-|----------9-----9-7---9-7-6-7-|
|------------------------------|------------------------------|
|
|  E S S S S S S S S S S S S E    E S S S S S S S S S S S S E
|------------------------------|------------------------------|
|------------------------------|------------------------------|
|------------------------------|------------------------------|
|-10-9-7-5---7-5-----5---------|-10-9-7-5---7-5-----5---------|
|----------9-----9-7---9-7-6-7-|----------9-----9-7---9-7-6-7-|
|------------------------------|------------------------------|


 Outro
  E5   D5     C5   B5     D5   C5     B5   A5
  H    H      H    H      H    H      H    H
|-----------|-----------|-----------|-----------|
|-----------|-----------|-----------|-----------|
|-----------|-----------|-----------|-----------|
|-9----7----|-5---------|-7----5----|-4---------|
|-7----5----|-3----9----|-5----3----|-2----7----|
|-----------|------7----|-----------|------5----|


  E5
  W            +W           +W           +W      5x
|----------||-------------|------------|---------||
|----------||o------------|------------|--------o||
|----------||-------------|------------|---------||
|-2--------||--(2)--------|-(2)--------|-(2)-----||
|-2--------||o-(2)--------|-(2)--------|-(2)----o||
|-0--------||--(0)--------|-(0)--------|-(0)-----||



Duration Legend
---------------
W - whole; H - half; Q - quarter; E - 8th; S - 16th; T - 32nd; X - 64th; a - acciaccatura
+ - note tied to previous; . - note dotted; .. - note double dotted
Uncapitalized letters represent notes that are staccato (1/2 duration)
Irregular groupings are notated above the duration line
Duration letters will always appear directly above the note/fret number it represents the
duration for.  Duration letters with no fret number below them represent rests.  Multi-
bar rests are notated in the form Wxn, where n is the number of bars to rest for.  Low
melody durations appear below the staff

Tablature Legend
----------------
 h   - hammer-on
 p   - pull-off
 b   - bend
 pb  - pre-bend
 r   - bend release (if no number after the r, then release immediately)
 /\  - slide into or out of (from/to "nowhere")
 s   - legato slide
 S   - shift slide
 - natural harmonic
[n]  - artificial harmonic
n(n) - tapped harmonic
 ~   - vibrato
 tr  - trill
 T   - tap
 TP  - trem. picking
 PM  - palm muting
\n/  - tremolo bar dip; n = amount to dip
 \n  - tremolo bar down
 n/  - tremolo bar up
/n\  - tremolo bar inverted dip
 =   - hold bend; also acts as connecting device for hammers/pulls
 <> - volume swell (louder/softer)
 x   - on rhythm slash represents muted slash
 o   - on rhythm slash represents single note slash

Misc Legend
-----------
 |  - bar
||  - double bar
||o - repeat start
o|| - repeat end
*|  - double bar (ending)
 :  - bar (freetime)
 $  - Segno
 &  - Coda
Tempo markers -  = BPM(8/16=s8/s16), where s8 = swing 8ths, s16 = swing 16ths

Suggest correction
Creating personal tab
Creating personal tab
You can edit any tab online and save it as your Personal.

You can edit, replace or remove any tab part or add personal notes – all changes will be seen only by you.

Personal tabs can be accessed anytime from any device, even offline.
Learn more »
Give kudos to tab author, rate the tab!
1 2 3 4 5
comments
print report bad tab
guest
You may want to rate the tab now too:
select rating
Wanna post a correction for this tab? Suggest correction