Oops, an error
Loading. Please wait.

Stratosphere bass

version 2
version 2

Whole song

1,551 views 6 this week
no commentswrite comment
1 2 3 4 5
3 more votes to show rating
add to favorites
×
Save as Personal and add changes to this tab that will be seen only by you. Learn more ›
×
You can save this tab as Personal to edit and correct it or add notes. All changes will be seen only by you. Learn more »
launch autoscroll
font size
0
reset
guitar tuner
backing track
0:00
0:00
edit
Autoscroll
slow
fast
+/-
esc
set tempo
stop
-------------------------------------------------------------------------------
			     Stratosphere ver3.0-  Stratovarius
-------------------------------------------------------------------------------

Tabbed By : UnderDOG

      
Tuning: F# C# G# D# 
        Gb Db Ab Eb  




I made a few changes that do the song more easy to play
  




F#||-------------------|-------------------|-------------------|
C#||-------------------|-------------------|-------------------|
G#||-------------------|-------------------|-------------------|
D#||-------------------|-------------------|-------------------|
                                                  
-------------------|---------------------|---------------------------|
-------------------|---------------------|-----------------0---------|
-------------------|--0------------------|-----------0-2-3---3-0-----|
-------------------|---------------------|-----------------------1---|
  
---------------------|---------------------------|---------------------|
--2------------------|---------------------------|---------------------|
---------------------|-----------0-2-3-2-0-------|--0------------------|
---------------------|---------------------3-1---|---------------------|

---------------------------|---------------------|---------------------------|
-----------------0---------|--2------------------|---------------------------|
-----------0-2-3---3-0-----|---------------------|-----------0-2-3-2-0-------|
-----------------------1---|---------------------|---------------------3-1---|


----------------------------------|----------------------------------|
----------------------------------|----------------------------------|
--0-0-0-0-0-0-0-0-0-0-0-0-0-0-0-0-|--7-8-7-5---------------5-7-8-7-5-|
----------------------------------|----------8-7-5-4-5-7-8-----------|

----------------------------------|----------------------------------|
----------------------------------|----------------------------------|
--7-7-7-7-7-7-7-7-7-7-7-7-7-7-7-7-|--7-8-7-5---------------5-7-8-7-5-|
----------------------------------|----------8-7-5-4-5-7-8-----------|

----------------------------------|----------------------------------|
----------------------------------|----------------------------------|
--0-0-0-0-0-0-0-0-0-0-0-0-0-0-0-0-|--7-8-7-5---------------5-7-8-7-5-|
----------------------------------|----------8-7-5-4-5-7-8-----------|

----------------------------------|----------------------------------|
----------------------------------|----------------------------------|
--7-7-7-7-7-7-7-7-7-7-7-7-7-7-7-7-|--7-8-7-5---------------5-7-8-7-5-|
----------------------------------|----------8-7-5-4-5-7-8-----------|


----------------------------------|----------------------------------|
----------------------0-0-2-2-----|----------------------------------|
--4-4-4-4-4-4-4-4-4-4---------4-4-|--5-5-5-5-5-5-5-5-5-5-3-3-2-2-0-0-|
----------------------------------|----------------------------------|


----------------------------------|----------------------------------|
--5-5-5-5-5-5-5-5-5-5-3-3-2-2-0-0-|----------------------0-0-2-2-----|
----------------------------------|--3-3-3-3-3-3-3-3-3-3---------3-3-|
----------------------------------|----------------------------------|

 
----------------------------------|----------------------------------|
--3-3-3-3-3-3-3-3-3-3-2-2-0-0-----|----------------------------------|
------------------------------3-3-|--2-2-2-2-2-2-2-2-2-2-2-2-2-2-2-2-|
----------------------------------|----------------------------------|


----------------------------------|----------------0-9-9-9-9-7-5-2---|
--2-2-2-2-2-2-2-2-2-2-2-2-2-2-2-2-|--2-2-2-2-2-2-2-----------------3-|
----------------------------------|----------------------------------|
----------------------------------|----------------------------------|


----------------------------------|----------------------------------|
----------------------0-0-2-2-----|----------------------------------|
--4-4-4-4-4-4-4-4-4-4---------4-4-|--5-5-5-5-5-5-5-5-5-5-3-3-2-2-0-0-|
----------------------------------|----------------------------------|


----------------------------------|----------------------------------|
--5-5-5-5-5-5-5-5-5-5-3-3-2-2-0-0-|----------------------0-0-2-2-----|
----------------------------------|--3-3-3-3-3-3-3-3-3-3---------3-3-|
----------------------------------|----------------------------------|

 
----------------------------------|----------------------------------|
--3-3-3-3-3-3-3-3-3-3-2-2-0-0-----|----------------------------------|
------------------------------3-3-|--2-2-2-2-2-2-2-2-2-2-2-2-2-2-2-2-|
----------------------------------|----------------------------------|


----------------------------------|----------------------|
--2-2-2-2-2-2-2-2-2-2-2-2-2-2-2-2-|--2-2-2-2-2-2-2-------|
----------------------------------|----------------------|
----------------------------------|----------------------|


--------------------------|--------------------------|
--------------------------|--------------------------|
--0-----7------0-----7----|--0-----2-----3-----4-----|
--------------------------|--------------------------|

--------------------------|--------------------------|
--------------------------|--------------------------|
--5-----0-----5------0----|--5-----6-----7-----------|
--------------------------|--------------------------|

--------------------------|--------------------------|
--------------------------|--------------------------|
--0-----7------0-----7----|--0-----2-----3-----4-----|
--------------------------|--------------------------|

--------------------------|--------------------------|
--------------------------|--------------------------|
--5-----0-----5------0----|--5-----6-----7-----------|
--------------------------|--------------------------|


----------------------------------|----------------------------------|
----------------------------------|----------------------------------|
--0-0-0-0-7-7-7-7-0-0-0-0-7-7-7-7-|--0-0-0-0-2-2-2-2-3-3-3-3-4-4-4-4-|
----------------------------------|----------------------------------|


----------------------------------|------------------9-9-7-5-4-0-----|
----------------------------------|-------------------------------7-0|
-5-5-5-5-0-0-0-0-5-5-5-5--0-0-0-0-|-6-6-6-6--7-7-7-7-----------------|
----------------------------------|----------------------------------|

----------------------------------|----------------------------------|
----------------------------------|----------------------------------|
--0-0-0-0-7-7-7-7-0-0-0-0-7-7-7-7-|--0-0-0-0-2-2-2-2-3-3-3-3-4-4-4-4-|
----------------------------------|----------------------------------|

      
----------------------------------|---------------------|
----------------------------------|---------------------|
-5-5-5-5-0-0-0-0-5-5-5-5--0-0-0-0-|-6-6-6-6--7-7-7-7----|
----------------------------------|---------------------|


-----------------------|---------------------|----------------------|
-----------------------|-----------2---------|-------2--------------|
---7--------------7----|---------------------|----------------------|
-----------------------|---------------------|----------------------|

   
--------------------|--------------------|--------------------|
--2--------3--------|--0--------2--------|-----------0--------|
--------------------|--------------------|--3-----------------|
--------------------|--------------------|--------------------|

          
--------------------|-------------------|-------------------|
--------------------|-------------------|-------------------|
--2--------3--------|--0----------------|-------------------|
--------------------|-------------------|-------------------|

         
-------------------|
-------------------|
-------------------|
-------------------|

---------------------|--------------------|---------------------|
---------------------|--------------------|---------------------|
--0---------------0--|--0----0------------|--0---------------0--|
---------------------|--------------------|---------------------|

         
--------------------|---------------------|--------------------|
--------------------|---------------------|--------------------|
--0----0------------|--0---------------0--|--0----0------------|
--------------------|---------------------|--------------------|


---------------------|--------------------|---------------------|
---------------------|--------------------|---------------------|
--0---------------0--|--0----0------------|--0---------------0--|
---------------------|--------------------|---------------------|

          
--------------------|---------------------|--------------------|
--------------------|---------------------|--------------------|
--0----0------------|--0---------------0--|--0----0------------|
--------------------|---------------------|--------------------|

  
---------------------|---------------------|---------------------|
--0---------------0--|--0----0-------------|---------------------|
---------------------|---------------------|---------------------|
---------------------|---------------------|--1---------------1--|

       
--------------------|--------------------|
--------------------|--------------------|
--------------------|--------------------|
--1----1------------|--------------------|

|---------------------|
|---------------------|
|--0---------------0--|
|---------------------|


   
--------------------|---------------------|--------------------|
--------------------|---------------------|--------------------|
--0----0------------|--0---------------0--|--0----0------------|
--------------------|---------------------|--------------------|


---------------------|--------------------|---------------------|
---------------------|--------------------|---------------------|
--0---------------0--|--0----0------------|--0---------------0--|
---------------------|--------------------|---------------------|

       
--------------------|---------------------|---------------------|
--------------------|--0---------------0--|--0----0-------------|
--0----0------------|---------------------|---------------------|
--------------------|---------------------|---------------------|
 
---------------------|--------------------|---------------------|
---------------------|--------------------|---------------------|
---------------------|--------------------|---------------------|
--1---------------1--|--1----1------------|---------------------|


       
--------------------|---------------------|--------------------|
--------------------|---------------------|--------------------|
--------------------|---------------------|--------------------|
--------------------|---------------------|--------------------|

       
--------------------|--------------------|--0-----------------|
--------------------|--0-----------------|--------------------|
--0--------4--------|-----------3--------|-----------2--------|
--------------------|--------------------|--------------------|


--------------------|--------------------|--------------------|
--------------------|--------------------|--0-----------------|
--3--------2--------|-----------0--------|-----------3--------|
--------------------|--1-----------------|--------------------|

      
--------------------|--------------------|--------------------|
--1--------4--------|--2-----------------|--------------------|
--------------------|--------------------|--0--------4--------|
--------------------|--------------------|--------------------|

   
--------------------|--0-----------------|--------------------|
--0-----------------|--------------------|--------------------|
-----------3--------|-----------2--------|--3--------2--------|
--------------------|--------------------|--------------------|

 
--------------------|--------------------|--------------------|
--------------------|--0-----------------|--1--------4--------|
-----------0--------|-----------3--------|--------------------|
--1-----------------|--------------------|--------------------|

                  
--------------------|---------------------|---------------------------|
--2-----------------|---------------------|-----------------0---------|
--------------------|--0------------------|-----------0-2-3---3-0-----|
--------------------|---------------------|-----------------------1---|
 
---------------------|---------------------------|---------------------|
--2------------------|---------------------------|---------------------|
---------------------|-----------0-2-3-2-0-------|--0------------------|
---------------------|---------------------3-1---|---------------------|


---------------------------|---------------------|---------------------------|
-----------------0---------|--2------------------|---------------------------|
-----------0-2-3---3-0-----|---------------------|-----------0-2-3-2-0-------|
-----------------------1---|---------------------|---------------------3-1---|

                    
---------------------|------------------------|---------------------|
---------------------|---------------------0--|--2------------------|
--0------------------|--0-----0------2--3-----|------------------2--|
---------------------|------------------------|---------------------|

 
------------------------|---------------------|------------------------|
--2-----2------0--------|---------------------|---------------------0--|
------------------3--2--|--0------------------|--0-----0------2--3-----|
------------------------|---------------------|------------------------|

  
---------------------|------------------------|
--2------------------|--2-----2------0--------|
------------------2--|------------------3--2--|
---------------------|------------------------|


----------------------------------|----------------------------------|
----------------------------------|----------------------------------|
--0-0-0-0-0-0-0-0-0-0-0-0-0-0-0-0-|--7-8-7-5---------------5-7-8-7-5-|
----------------------------------|----------8-7-5-4-5-7-8-----------|
                                          FAST
----------------------------------|----------------------------------|
----------------------------------|----------------------------------|
--7-7-7-7-7-7-7-7-7-7-7-7-7-7-7-7-|--7-8-7-5---------------5-7-8-7-5-|
----------------------------------|----------8-7-5-4-5-7-8-----------|
                                       VERY FAST
----------------------------------|----------------------------------|
----------------------------------|----------------------------------|
--0-0-0-0-0-0-0-0-0-0-0-0-0-0-0-0-|--7-8-7-5---------------5-7-8-7-5-|
----------------------------------|----------8-7-5-4-5-7-8-----------|

                                        FASTER
----------------------------------|----------------------------------|
----------------------------------|----------------------------------|
--7-7-7-7-7-7-7-7-7-7-7-7-7-7-7-7-|--7-8-7-5---------------5-7-8-7-5-|
----------------------------------|----------8-7-5-4-5-7-8-----------|
 
 
----------------------------------|---------------------------------|
----------------------------------|-------------------------------0-|
--7-8-7-5---------------5-7-8-7-5-|-7-8-7-5---------------5-7-8-7---|
----------8-7-5-4-5-7-8-----------|---------8-7-5-4-5-7-8-----------|
  
                               then
OUTRO  FASTER                                         SLOW
--9----10----7----9----|--------7---------------|----------------------|
-----------------------|--10---------9----10----|--7----9----6----7----|
-----------------------|------------------------|----------------------|
-----------------------|------------------------|----------------------|

   
----------------------|----------------------|----------------------|
------------0---------|-------0--------------|----------------------|
--7----8---------7----|----------------------|--0--------------0----| 
----------------------|--8---------7----8----|-------7----4---------|


----------------------|----------------------|----------------------|
----------------------|----------------------|----------------------|
----------------------|----------------------|----------------------|
-------1--------------|----------------------|--1---------------1-1-|
     repeat                           until       this    

this part is very dificult to listen in the song DO IT IF YOU WANT
----------------------------------|-----------------------|
------------------0-0-2-2-3-3-3-3-|--3------------3-2-0---|
------0-0-2-2-3-3-----------------|---------------------3-|
--3-3-----------------------------|-----------------------|
            
-----------------------|-------------------|-------------------|
-----------------------|-------wait--------|-------------------|
--2-0------------------|-------------------|-------------------|
------3-1--------------|-------------------|-------------------|
                                  END 
-------------------|-------------2----------||
-------------------|---------2--------------||
-------------------|------------------------||
-------------------|------------------------||


            
            
Suggest correction
Creating personal tab
Creating personal tab
You can edit any tab online and save it as your Personal.

You can edit, replace or remove any tab part or add personal notes – all changes will be seen only by you.

Personal tabs can be accessed anytime from any device, even offline.
Learn more »
Give kudos to tab author, rate the tab!
1 2 3 4 5
comments
print report bad tab
guest
You may want to rate the tab now too:
select rating
Wanna post a correction for this tab? Suggest correction