Oops, an error
Loading. Please wait.

Arrepentimiento Tab

96 views 15 this week
no commentswrite comment
1 2 3 4 5
3 more votes to show rating
add to favorites
launch autoscroll
font size
0
reset
how to read this tab
guitar tuner
Autoscroll
slow
fast
+/-
esc
set tempo
stop
Help us to improve Ultimate-Guitar.com Take our survey!
×
K onda esta es mi transcripcion
del buen stravaganzza con una rola bien chida
espero que les guste

Referencia
/=Slide


0:01
Intro
Eb|-----------------------------------------|
Bb|-----------------------------------------|
Gb|-----------------------------------------|
Db|--5-------5-------5-------5-------5------|
Ab|--3--5-5--3--5-5--3--5-5--3--5-5--3--5-5-|
Eb|-----3-3-----3-3-----3-3-----3-3-----3-3-|


0:19
Eb|-----------------------------------------------------|
Bb|-----------------------------------------------------|
Gb|-----------------------------------------------------|
Db|-----5---------------5---------------5---------------|
Ab|-3-3-3-3-3-3-3-3-3-3-3-3-3-3-3-3-3-3-3-3-3-3-3-3-3-3-|
Eb|-----------------------------------------------------|


0:26
Eb|---------------------------------------------|
Bb|---------------------------------------------|
Gb|---------------------------------------------|
Db|---------------------------------------------|
Ab|--6--6--6--8--8--8--6--6--10--8--13--12--10--|
Eb|--4--4--4--6--6--6--4--4---8--6--11--10---8--|


0:29
Eb|-----------------------------------------------------|
Bb|-----------------------------------------------------|
Gb|-----------------------------------------------------|
Db|-----5---------------5---------------5---------------|
Ab|-3-3-3-3-3-3-3-3-3-3-3-3-3-3-3-3-3-3-3-3-3-3-3-3-3-3-|
Eb|-----------------------------------------------------|


0:36
Eb|------------------------------------|
Bb|------------------------------------|
Gb|------------------------------------|
Db|------------------------------------|
Ab|--6--6--6--8--8--8--10--13--12--10--|
Eb|--4--4--4--6--6--6---8--11--10---8--|


0:38
Eb|-----------------------------------------------------|
Bb|-----------------------------------------------------|
Gb|-----------------------------------------------------|
Db|-----5---------------5---------------5---------------|
Ab|-3-3-3-3-3-3-3-3-3-3-3-3-3-3-3-3-3-3-3-3-3-3-3-3-3-3-|
Eb|-----------------------------------------------------|


0:45
Eb|--------------------------------|
Bb|--------------------------------|
Gb|--------------------------------|
Db|--------------------------------|
Ab|--6--6--6--6--6--6--6--6--6--6--|
Eb|--4--4--4--4--4--4--4--4--4--4--|


0:47
Eb|-----------------------------------------------------|
Bb|-----------------------------------------------------|
Gb|-----------------------------------------------------|
Db|-----5---------------5---------------5---------------|
Ab|-3-3-3-3-3-3-3-3-3-3-3-3-3-3-3-3-3-3-3-3-3-3-3-3-3-3-|
Eb|-----------------------------------------------------|


0:54
Eb|------------------------------|
Bb|------------------------------|
Gb|------------------------------|
Db|------------------------------|
Ab|--6--6--8--8--10--13--12--10--|
Eb|--4--4--6--6---8--11--10---8--|


0:57
Eb|----------------------------------------------|
Bb|----------------------------------------------|
Gb|----------------------------------------------|  X6
Db|----------5----------5------------------------|
Ab|--3-3-3-3-3--3-3-3-3-3----------6----------5--|
Eb|------------------------4-4-4-4-4--3-3-3-3-3--|

Huellas de los días en la arena,
Pasado encadenado a tu final,
Tristeza que lloran los ojos de la verdad.

Las paredes blancas lo delatan,
El camino andado morirá,
Recuerdos que gritan torturando una vez más.


1:35
Eb|-----------------------------------------------------|
Bb|-----------------------------------------------------|
Gb|-----------------------------------------------------|
Db|-----5---------------5---------------5---------------|
Ab|-3-3-3-3-3-3-3-3-3-3-3-3-3-3-3-3-3-3-3-3-3-3-3-3-3-3-|
Eb|-----------------------------------------------------|


1:42
Eb|------------------------------|
Bb|------------------------------|
Gb|------------------------------|
Db|------------------------------|
Ab|--6--6--8--8--10--13--12--10--|
Eb|--4--4--6--6---8--11--10---8--|


1:45
Eb|-----------------------------------------------------|
Bb|-----------------------------------------------------|
Gb|-----------------------------------------------------|
Db|-----5---------------5---------------5---------------|
Ab|-3-3-3-3-3-3-3-3-3-3-3-3-3-3-3-3-3-3-3-3-3-3-3-3-3-3-|
Eb|-----------------------------------------------------|


1:52
Eb|------------------------------|
Bb|------------------------------|
Gb|------------------------------|
Db|------------------------------|
Ab|--6--6--8--8--10--13--12--10--|
Eb|--4--4--6--6---8--11--10---8--|


1:54
Eb|----------------------------------------------|
Bb|----------------------------------------------|
Gb|----------------------------------------------|  X6
Db|----------5----------5------------------------|
Ab|--3-3-3-3-3--3-3-3-3-3----------6----------5--|
Eb|------------------------4-4-4-4-4--3-3-3-3-3--|

El dolor vivido reaparece,
Un amor soñado sufrirás,
Anhelo que surge al volver la vista atrás.

Con la risa de la muerte pides,
Las respuestas que jamás sabrás,
Incógnitas que sugieren otra realidad.


2:33
Eb|--------------------------------------------|
Bb|--------------------------------------------|
Gb|--------------------------------------------|
Db|--------------------------------------------|
Ab|--3-3-3--5-5-5--6-6-6--6-6-6--5-5-5--3-3-3--|
Eb|--------------------------------------------|

La luz que desprende el sol,
Cegándote el corazón.


2:51
Eb|--------------|
Bb|--------------|
Gb|--------------|
Db|-----8-----7--|
Ab|-----6-----5--|
Eb|--00----00----|


2:53
Eb|--------------------------------------------|
Bb|--------------------------------------------|
Gb|--------------------------------------------|
Db|--------------------------------------------|
Ab|--3-3-3--5-5-5--6-6-6--6-6-6--5-5-5--3-3-3--|
Eb|--------------------------------------------|

Amanecer de un nuevo día y volver a amarla otra vez.
Durmiendo te retuerces al soñar en no besarla más.


3:10
Eb|--------------|
Bb|--------------|
Gb|--------------|
Db|-----8-----7--|
Ab|-----6-----5--|
Eb|--00----00----|


3:11
Eb|-----------------------------------------|
Bb|-----------------------------------------|
Gb|-----------------------------------------|
Db|--5-------5-------5-------5-------5------|
Ab|--3--5-5--3--5-5--3--5-5--3--5-5--3--5-5-|
Eb|-----3-3-----3-3-----3-3-----3-3-----3-3-|


3:32
Eb|--------------------------------------------------|
Bb|--------------------------------------------------|
Gb|--------------------------------------------------|
Db|--------5--5-5--7-7--8-8--------------------------|
Ab|--3-3-3-3--3-3--5-5--6-6--------6--6-6--5-5--3-3--|
Eb|--------------------------4-4-4-4--4-4--3-3--1-1--|


3:37
Eb|--------------------------------------------------------------|
Bb|--------------------------------------------------------------|
Gb|--------------------------------------------------------------|
Db|--------------------------------------------------------------|
Ab|-----------3-------------3------------3------------3/6/5--555-|
Eb|--1-1-1-1-1-1--1-1-1-1-1-1--1-1-1-1-1-1--1-1-1-1-1-1/4/3--333-|


3:44
Eb|--------------------------------------------------|
Bb|--------------------------------------------------|
Gb|--------------------------------------------------|
Db|--------5--5-5--7-7--8-8--------------------------|
Ab|--3-3-3-3--3-3--5-5--6-6--------6--6-6--5-5--3-3--|
Eb|--------------------------4-4-4-4--4-4--3-3--1-1--|


3:51
Eb|--------------------------------------------------------------|
Bb|--------------------------------------------------------------|
Gb|--------------------------------------------------------------|
Db|--------------------------------------------------------------|
Ab|-----------3-------------3------------3------------3/6/5--555-|
Eb|--1-1-1-1-1-1--1-1-1-1-1-1--1-1-1-1-1-1--1-1-1-1-1-1/4/3--333-|


3:58
Eb|-------------------------------------------------|
Bb|-------------------------------------------------|
Gb|-------------------------------------------------|
Db|--------5--5-5--7-7--8-8-------------------------|
Ab|--3-3-3-3--3-3--5-5--6-6--------6--6-6--5-5--3-3-|
Eb|--------------------------4-4-4-4--4-4--3-3--1-1-|

Es la voz que no puedes oir


4:05
Eb|--------------------------------------------------------------|
Bb|--------------------------------------------------------------|
Gb|--------------------------------------------------------------|
Db|--------------------------------------------------------------|
Ab|------------3------------3------------3------------3/6/5--555-|
Eb|--1-1-1-1-1-1--1-1-1-1-1-1--1-1-1-1-1-1--1-1-1-1-1-1/4/3--333-|

La que ya susurra como acabar.


4:13
Eb|--------------------------------------------------|
Bb|--------------------------------------------------|
Gb|--------------------------------------------------|
Db|--------5--5-5--7-7--8-8--------------------------|
Ab|--3-3-3-3--3-3--5-5--6-6--------6--6-6--5-5--3-3--|
Eb|--------------------------4-4-4-4--4-4--3-3--1-1--|

Sin querer, lloras al no poder


4:20
Eb|--------------------------------------------------------------|
Bb|--------------------------------------------------------------|
Gb|--------------------------------------------------------------|
Db|--------------------------------------------------------------|
Ab|------------3------------3------------3------------3/6/5--555-|
Eb|--1-1-1-1-1-1--1-1-1-1-1-1--1-1-1-1-1-1--1-1-1-1-1-1/4/3--333-|

Retomar lo que quedó atrás.


4:27
Eb|----------------------------------------------|
Bb|----------------------------------------------|
Gb|----------------------------------------------|  X3
Db|----------5----------5------------------------|
Ab|--3-3-3-3-3--3-3-3-3-3----------6----------5--|
Eb|------------------------4-4-4-4-4--3-3-3-3-3--|

Por la noche, solo en la penumbra,
Te arrepientes de lo hecho mal;
Toda una vida de la que no escaparás.


4:46
Eb|-------------------------------------------------------------------|
Bb|-------------------------------------------------------------------|
Gb|-------------------------------------------------------------------|
Db|------5--------------5--------------5------------------------------| X2
Ab|--3-3-3--3-3-3-3-3-3-3--3-3-3-3-3-3-3------6--------------6------5-|
Eb|---------------------------------------4-4-4--4-4-4-4-4-4-4--3-3-3-|

En el fuego del pasado quemas
Los errores que vas a olvidar.
Por última vez descansas, todo es fácil ya.


5:05
Eb|--------------------------------------------|
Bb|--------------------------------------------|
Gb|--------------------------------------------|
Db|--------------------------------------------|
Ab|--3-3-3--5-5-5--6-6-6--6-6-6--5-5-5--3-3-3--|
Eb|--------------------------------------------|

La luz que desprende el sol,
Cegándote el corazón.


5:23
Eb|---------------|
Bb|---------------|
Gb|---------------|
Db|-----8------7--|
Ab|-----6------5--|
Eb|--00-----00----|


5:25
Eb|--------------------------------------------|
Bb|--------------------------------------------|
Gb|--------------------------------------------|
Db|--------------------------------------------|
Ab|--3-3-3--5-5-5--6-6-6--6-6-6--5-5-5--3-3-3--|
Eb|--------------------------------------------|

Amanecer de un nuevo día y volver a amarla otra vez.
Durmiendo te retuerces al soñar en no besarla más.


5:42
Eb|---------------|
Bb|---------------|
Gb|---------------|
Db|-----8------7--|
Ab|-----6------5--|
Eb|--00-----00----|


5:43
Eb|-----------------------------------------|
Bb|-----------------------------------------|
Gb|-----------------------------------------|
Db|--5-------5-------5-------5-------5------|
Ab|--3--5-5--3--5-5--3--5-5--3--5-5--3--5-5-|
Eb|-----3-3-----3-3-----3-3-----3-3-----3-3-|


5:48
Eb|---------------------------------------------------|
Bb|---------------------------------------------------|
Gb|---------------------------------------------------|
Db|--------5--5-5--7-7--8-8---------------------------|
Ab|--3-3-3-3--3-3--5-5--6-6--------6---6-6--5-5--3-3--|
Eb|--------------------------4-4-4-4---4-4--3-3--1-1--|


5:55
Eb|-------------------------------------------------------------|
Bb|-------------------------------------------------------------|
Gb|-------------------------------------------------------------|
Db|-------------------------------------------------------------|
Ab|-----------3------------3------------3------------3/6/5--555-|
Eb|-1-1-1-1-1-1--1-1-1-1-1-1--1-1-1-1-1-1--1-1-1-1-1-1/4/3--333-|


6:02
Eb|----------------------------------------------------|
Bb|----------------------------------------------------|
Gb|----------------------------------------------------|
Db|--------5--5-5--7-7--8-8----------------------------|
Ab|--3-3-3-3--3-3--5-5--6-6--------6--6-6---5-5---3-3--|
Eb|--------------------------4-4-4-4--4-4---3-3---1-1--|

Es la voz que no puedes oir


6:09
Eb|--------------------------------------------------------------|
Bb|--------------------------------------------------------------|
Gb|--------------------------------------------------------------|
Db|--------------------------------------------------------------|
Ab|------------3------------3------------3------------3/6/5--555-|
Eb|--1-1-1-1-1-1--1-1-1-1-1-1--1-1-1-1-1-1--1-1-1-1-1-1/4/3--333-|

La que ya susurra como acabar.


6:17
Eb|--------------------------------------------------|
Bb|--------------------------------------------------|
Gb|--------------------------------------------------|
Db|--------5--5-5--7-7--8-8--------------------------|
Ab|--3-3-3-3--3-3--5-5--6-6--------6--6-6--5-5--3-3--|
Eb|--------------------------4-4-4-4--4-4--3-3--1-1--|

Sin querer, lloras al no poder


6:24
Eb|--------------------------------------------------------------|
Bb|--------------------------------------------------------------|
Gb|--------------------------------------------------------------|
Db|--------------------------------------------------------------|
Ab|------------3------------3------------3------------3/6/5--555-|
Eb|--1-1-1-1-1-1--1-1-1-1-1-1--1-1-1-1-1-1--1-1-1-1-1-1/4/3--333-|

Retomar lo que quedó atrás.


6:31 Solo

Se los debo


Saludos a los de el britania en torreon.
A mis compas el memo, bubi, beto, ricardo,goyito, manolo, el papa,
alain y el capu.
y en especial a Vero que me gusta
Suggest correction
Give kudos to tab author, rate the tab!
1 2 3 4 5
comments
print report bad tab
guest
You may want to rate the tab now too:
select rating
Wanna post a correction for this tab? Suggest correction