Oops, an error
Loading. Please wait.

Diosa Del Infierno Azul (Primer Acto) Tab

19 views 1 this week
no commentswrite comment
1 2 3 4 5
3 more votes to show rating
add to favorites
launch autoscroll
font size
0
reset
how to read this tab
guitar tuner
×
Best way to learn
"Diosa Del Infierno Azul (primer Acto)"
Autoscroll
slow
fast
+/-
esc
set tempo
stop
dudas???? 

Guitarra
                     H.              H.              H.
E||-------|-------|---------------|---------------|---------------|
B||-------|-------|---------------|---------------|---------------|
G||-------|-------|---------------|---------------|---------------|
D||-------|-------|--3------------|--L------------|--L------------|
A||-------|-------|--3------------|--L------------|--L------------|
E||-------|-------|--1------------|--L------------|--L------------|


  H.              H.              H.              H.
---------------|---------------|---------------|---------------|
---------------|---------------|---------------|---------------|
---------------|--6------------|--L------------|--L------------|
--L------------|--6------------|--L------------|--L------------|
--L------------|--4------------|--L------------|--L------------|
--L------------|---------------|---------------|---------------|


  H.              H.              H.              H.
---------------|---------------|---------------|---------------|
---------------|---------------|---------------|---------------|
--L------------|---------------|---------------|---------------|
--L------------|--3------------|--L------------|--L------------|
--L------------|--3------------|--L------------|--L------------|
---------------|--1------------|--L------------|--L------------|


  H.              H.              H.              H.
---------------|---------------|---------------|---------------|
---------------|---------------|---------------|---------------|
---------------|--6------------|--L------------|--L------------|
--L------------|--6------------|--L------------|--L------------|
--L------------|--4------------|--L------------|--L------------|
--L------------|---------------|---------------|---------------|


  H.
---------------|-------|-------|-------|-------|-------|-------|
---------------|-------|-------|-------|-------|-------|-------|
--L------------|-------|-------|-------|-------|-------|-------|
--L------------|-------|-------|-------|-------|-------|-------|
--L------------|-------|-------|-------|-------|-------|-------|
---------------|-------|-------|-------|-------|-------|-------|


-------|-------|-------|-------|-------|-------|-------|-------|
-------|-------|-------|-------|-------|-------|-------|-------|
-------|-------|-------|-------|-------|-------|-------|-------|
-------|-------|-------|-------|-------|-------|-------|-------|
-------|-------|-------|-------|-------|-------|-------|-------|
-------|-------|-------|-------|-------|-------|-------|-------|


                  E  E  E  E  E  E     E  E  E  E  E  E
-------|-------|--------------------|--------------------|
-------|-------|--------------------|--------------------|
-------|-------|--------------------|--------------------|
-------|-------|--------------------|--------------------|
-------|-------|--3--3--3-----3--3--|--3--3--3-----3--3--|
-------|-------|--1--1--1-----1--1--|--1--1--1-----1--1--|


  Q    E  Q    E     Q    E  Q    E     E  E  E  E  E  E
------------------|------------------|--------------------|
------------------|------------------|--------------------|
------------------|------------------|--------------------|
------------------|------------------|--6--6--6-----6--6--|
--3----3--3----3--|--3----3--3----3--|--4--4--4-----4--4--|
--1----1--1----1--|--1----1--1----1--|--------------------|


  E  E  E  E  E  E     Q    E  Q    E     Q    E  Q    E
--------------------|------------------|------------------|
--------------------|------------------|------------------|
--------------------|------------------|------------------|
--6--6--6-----6--6--|--6----6--6----6--|--6----6--6----6--|
--4--4--4-----4--4--|--4----4--4----4--|--4----4--4----4--|
--------------------|------------------|------------------|


  E  E  E  E  E  E     E  E  E  E  E  E     Q    E  Q    E
--------------------|--------------------|------------------|
--------------------|--------------------|------------------|
--------------------|--------------------|------------------|
--------------------|--------------------|------------------|
--3--3--3-----3--3--|--3--3--3-----3--3--|--3----3--3----3--|
--1--1--1-----1--1--|--1--1--1-----1--1--|--1----1--1----1--|


  Q    E  Q    E     E  E  E  E  E  E     E  E  E  E  E  E
------------------|--------------------|--------------------|
------------------|--------------------|--------------------|
------------------|--------------------|--------------------|
------------------|--6--6--6-----6--6--|--6--6--6-----6--6--|
--3----3--3----3--|--4--4--4-----4--4--|--4--4--4-----4--4--|
--1----1--1----1--|--------------------|--------------------|


  Q    E  Q    E     Q    E  Q    E
------------------|------------------|-------|-------|-------|-------|
------------------|------------------|-------|-------|-------|-------|
------------------|------------------|-------|-------|-------|-------|
--6----6--6----6--|--6----6--6----6--|-------|-------|-------|-------|
--4----4--4----4--|--4----4--4----4--|-------|-------|-------|-------|
------------------|------------------|-------|-------|-------|-------|


-------|-------|-------|-------|-------|-------|-------|-------|
-------|-------|-------|-------|-------|-------|-------|-------|
-------|-------|-------|-------|-------|-------|-------|-------|
-------|-------|-------|-------|-------|-------|-------|-------|
-------|-------|-------|-------|-------|-------|-------|-------|
-------|-------|-------|-------|-------|-------|-------|-------|


-------|-------|-------|-------|-------|-------|-------|-------|
-------|-------|-------|-------|-------|-------|-------|-------|
-------|-------|-------|-------|-------|-------|-------|-------|
-------|-------|-------|-------|-------|-------|-------|-------|
-------|-------|-------|-------|-------|-------|-------|-------|
-------|-------|-------|-------|-------|-------|-------|-------|


                                  E  E  E  E  Q
-------|-------|-------|-------|-------------------|
-------|-------|-------|-------|-------------------|
-------|-------|-------|-------|-------------------|
-------|-------|-------|-------|-------------------|
-------|-------|-------|-------|--3--3--3--3--3----|
-------|-------|-------|-------|--1--1--1--1--1----|


  E  E  E  E  Q       E  E  E  E  Q       E  E  E  E  Q
-------------------|-------------------|-------------------|
-------------------|-------------------|-------------------|
-------------------|-------------------|-------------------|
-------------------|-------------------|-------------------|
--3--3--3--3--3----|--3--3--3--3--3----|--3--3--3--3--3----|
--1--1--1--1--1----|--1--1--1--1--1----|--1--1--1--1--1----|


  E  E  E  E  Q       E  E  E  E  Q       E  E  E  E  Q
-------------------|-------------------|-------------------|
-------------------|-------------------|-------------------|
-------------------|-------------------|-------------------|
--6--6--6--6--6----|--6--6--6--6--6----|--6--6--6--6--6----|
--4--4--4--4--4----|--4--4--4--4--4----|--4--4--4--4--4----|
-------------------|-------------------|-------------------|


  E  E  E  E  Q       E  E  E  E  Q       E  E  E  E  Q
-------------------|-------------------|-------------------|
-------------------|-------------------|-------------------|
-------------------|-------------------|-------------------|
--6--6--6--6--6----|-------------------|-------------------|
--4--4--4--4--4----|--3--3--3--3--3----|--3--3--3--3--3----|
-------------------|--1--1--1--1--1----|--1--1--1--1--1----|


  E  E  E  E  Q       E  E  E  E  Q       E  E  E  E  Q
-------------------|-------------------|-------------------|
-------------------|-------------------|-------------------|
-------------------|-------------------|-------------------|
-------------------|-------------------|--6--6--6--6--6----|
--3--3--3--3--3----|--3--3--3--3--3----|--4--4--4--4--4----|
--1--1--1--1--1----|--1--1--1--1--1----|-------------------|


  E  E  E  E  Q       E  E  E  E  Q       E  E  E  E  Q
-------------------|-------------------|-------------------|
-------------------|-------------------|-------------------|
-------------------|-------------------|-------------------|
--6--6--6--6--6----|--6--6--6--6--6----|--6--6--6--6--6----|
--4--4--4--4--4----|--4--4--4--4--4----|--4--4--4--4--4----|
-------------------|-------------------|-------------------|


  E  E  E  E  Q       E  E  E  E  Q       E  E  E  E  Q
-------------------|-------------------|-------------------|
-------------------|-------------------|-------------------|
-------------------|-------------------|-------------------|
-------------------|-------------------|-------------------|
--3--3--3--3--3----|--3--3--3--3--3----|--3--3--3--3--3----|
--1--1--1--1--1----|--1--1--1--1--1----|--1--1--1--1--1----|


  E  E  E  E  Q       E  E  E  E  Q       E  E  E  E  Q
-------------------|-------------------|-------------------|
-------------------|-------------------|-------------------|
-------------------|-------------------|-------------------|
-------------------|--6--6--6--6--6----|--6--6--6--6--6----|
--3--3--3--3--3----|--4--4--4--4--4----|--4--4--4--4--4----|
--1--1--1--1--1----|-------------------|-------------------|


  E  E  E  E  Q       E  E  E  E  Q       E  E  E  E  Q
-------------------|-------------------|-------------------|
-------------------|-------------------|-------------------|
-------------------|-------------------|-------------------|
--6--6--6--6--6----|--6--6--6--6--6----|-------------------|
--4--4--4--4--4----|--4--4--4--4--4----|--3--3--3--3--3----|
-------------------|-------------------|--1--1--1--1--1----|


  E  E  E  E  Q       E  E  E  E  Q       E  E  E  E  Q
-------------------|-------------------|-------------------|
-------------------|-------------------|-------------------|
-------------------|-------------------|-------------------|
-------------------|-------------------|-------------------|
--3--3--3--3--3----|--3--3--3--3--3----|--3--3--3--3--3----|
--1--1--1--1--1----|--1--1--1--1--1----|--1--1--1--1--1----|


  E  E  E  E  Q       E  E  E  E  Q       E  E  E  E  Q
-------------------|-------------------|-------------------|
-------------------|-------------------|-------------------|
-------------------|-------------------|-------------------|
--6--6--6--6--6----|--6--6--6--6--6----|--6--6--6--6--6----|
--4--4--4--4--4----|--4--4--4--4--4----|--4--4--4--4--4----|
-------------------|-------------------|-------------------|


  E  E  E  E  Q       S S S S S S S S S S S S    Q    Q.     E
-------------------|--------------------------|-----------------|
-------------------|--7-7-7-7-7-7-7-7-7-7-7-7-|--7----6------4--|
-------------------|--------------------------|-----------------|
--6--6--6--6--6----|--------------------------|-----------------|
--4--4--4--4--4----|--------------------------|-----------------|
-------------------|--------------------------|-----------------|


  Q.     Q    E     Q    Q    Q       S S S S S S S S S S S S
-----------------|------------6----|--5-5-5-5-5-5-5-5-5-5-5-5-|
--4-----------4--|--6----7---------|--------------------------|
---------3-------|-----------------|--------------------------|
-----------------|-----------------|--------------------------|
-----------------|-----------------|--------------------------|
-----------------|-----------------|--------------------------|


  Q    Q.     E     Q.     Q    E     Q    Q    Q
--5----4------2--|--2-----------2--|--4----5----9----|
-----------------|---------2-------|-----------------|
-----------------|-----------------|-----------------|
-----------------|-----------------|-----------------|
-----------------|-----------------|-----------------|
-----------------|-----------------|-----------------|


   S  S  S  S  S  S  S  S  S  S  S  S     H         Q
--10-10-10-10-10-10-10-10-10-10-10-10-|--10--------------|
--------------------------------------|------------10----|
--------------------------------------|------------------|
--------------------------------------|------------------|
--------------------------------------|------------------|
--------------------------------------|------------------|


   Q     Q    Q       Q    Q     E   E
-------------------|--------------------|
--13----11----9----|--8----6----13--11--|
-------------------|--------------------|
-------------------|--------------------|
-------------------|--------------------|
-------------------|--------------------|


   S  S  S  S  S  S  S  S  S  S  S  S     H        Q
--------------------------------------|-----------------|
--14-14-14-14-14-14-14-14-14-14-14-14-|--14--------9----|
--------------------------------------|-----------------|
--------------------------------------|-----------------|
--------------------------------------|-----------------|
--------------------------------------|-----------------|


   S  S  S  S  S  S  S  S S S S S    S S S S Q     Q
----------------------------------|---------------------|
--12-12-12-12-10-10-10-10-8-8-8-8-|--7-7-7-7-8----10----|
----------------------------------|---------------------|
----------------------------------|---------------------|
----------------------------------|---------------------|
----------------------------------|---------------------|


  S S S S S S S S E  E     S S S S S S S S E  E
------------------------|------------------------|
--9-9-9-9-9-9-9-9-9--8--|--9-9-9-9-9-9-9-9-8--9--|
------------------------|------------------------|
------------------------|------------------------|
------------------------|------------------------|
------------------------|------------------------|


   S  S  S  S  S  S  S  S E  E     Q.     E  E   E
--------------------------------|-------------------|
--11-11-11-11-11-11-11-11-9--8--|--9------9--8------|
--------------------------------|---------------10--|
--------------------------------|-------------------|
--------------------------------|-------------------|
--------------------------------|-------------------|


  Q.     E  E  E     Q.     E  E  E      Q.      E  E  E
------------------|------------------|--------------------|
------------------|------------------|--------------------|
--9------9--9--8--|--9------9--8--9--|--11------11--9--8--|
------------------|------------------|--------------------|
------------------|------------------|--------------------|
------------------|------------------|--------------------|


  Q.     Q.        E   E   E   E   E   E      E   E   E   E   E   E
----------------|-------------------------|--------------12--12--13--|
----------------|-------------------------|------13--13--------------|
--9------9------|--9--10--10--12--12--13--|--13----------------------|
----------------|-------------------------|--------------------------|
----------------|-------------------------|--------------------------|
----------------|-------------------------|--------------------------|


   E   E   E   E   E   E      Q.      E   E   E
--13--15--15--16--16--15--|--18------18--16--15--|
--------------------------|----------------------|
--------------------------|----------------------|
--------------------------|----------------------|
--------------------------|----------------------|
--------------------------|----------------------|


   Q.      E   E   E      H         E   E      H.
--24------24--24--23--|--24--------24--23--|--21------------|
----------------------|--------------------|----------------|
----------------------|--------------------|----------------|
----------------------|--------------------|----------------|
----------------------|--------------------|----------------|
----------------------|--------------------|----------------|


   Q.     E     Q         Q     Q     Q
--20------------------|---------------------|-------|-------|-------|
----------------------|---------------------|-------|-------|-------|
----------------------|---------------------|-------|-------|-------|
----------------------|---------------------|-------|-------|-------|
----------0s--/16/----|--16----9----4----|-------|-------|-------|
----------0s--/16/----|--16----9----4----|-------|-------|-------|


-------|-------|-------|-------|-------|-------|-------|-------|
-------|-------|-------|-------|-------|-------|-------|-------|
-------|-------|-------|-------|-------|-------|-------|-------|
-------|-------|-------|-------|-------|-------|-------|-------|
-------|-------|-------|-------|-------|-------|-------|-------|
-------|-------|-------|-------|-------|-------|-------|-------|


-------|-------|-------|-------|-------|-------|-------|-------|
-------|-------|-------|-------|-------|-------|-------|-------|
-------|-------|-------|-------|-------|-------|-------|-------|
-------|-------|-------|-------|-------|-------|-------|-------|
-------|-------|-------|-------|-------|-------|-------|-------|
-------|-------|-------|-------|-------|-------|-------|-------|


                  E  E  E  E  E  E     E  E  E  E  E  E
-------|-------|--------------------|--------------------|
-------|-------|--------------------|--------------------|
-------|-------|--------------------|--------------------|
-------|-------|--------------------|--------------------|
-------|-------|--3--4--3--4--3--4--|--3--4--3--4--3--4--|
-------|-------|--------------------|--------------------|


                                                 >
  S S S S S S S S S S S S    S S S S S S S S S S S S
--------------------------|--------------------------|
--------------------------|--------------------------|
--------------------------|--------------------------|
--5-5-5-5-5-5-5-5-5-5-5-5-|--5-5-5-5-5-5-5-5-5-5-6-6-|
--------------------------|--------------------------|
--------------------------|--------------------------|


                                                 >
  S S S S S S S S S S S S    S S S S S S S S S S S S
--------------------------|--------------------------|
--------------------------|--------------------------|
--------------------------|--------------------------|
--5-5-5-5-5-5-5-5-5-5-5-5-|--5-5-5-5-5-5-5-5-5-5-6-6-|
--------------------------|--------------------------|
--------------------------|--------------------------|


                                                 >
  S S S S S S S S S S S S    S S S S S S S S S S S S
--------------------------|--------------------------|
--------------------------|--------------------------|
--------------------------|--------------------------|
--------------------------|--------------------------|
--6-6-6-6-6-6-6-6-6-6-6-6-|--6-6-6-6-6-6-6-6-6-6-7-7-|
--------------------------|--------------------------|


                                                 >
  S S S S S S S S S S S S    S S S S S S S S S S S S
--------------------------|--------------------------|
--------------------------|--------------------------|
--------------------------|--------------------------|
--------------------------|--------------------------|
--6-6-6-6-6-6-6-6-6-6-6-6-|--6-6-6-6-6-6-6-6-6-6-7-7-|
--------------------------|--------------------------|


                                                 >
  S S S S S S S S S S S S    S S S S S S S S S S S S
--------------------------|--------------------------|
--------------------------|--------------------------|
--------------------------|--------------------------|
--5-5-5-5-5-5-5-5-5-5-5-5-|--5-5-5-5-5-5-5-5-5-5-6-6-|
--------------------------|--------------------------|
--------------------------|--------------------------|


                                                 >
  S S S S S S S S S S S S    S S S S S S S S S S S S
--------------------------|--------------------------|
--------------------------|--------------------------|
--------------------------|--------------------------|
--5-5-5-5-5-5-5-5-5-5-5-5-|--5-5-5-5-5-5-5-5-5-5-6-6-|
--------------------------|--------------------------|
--------------------------|--------------------------|


                                                 >
  S S S S S S S S S S S S    S S S S S S S S S S S S
--------------------------|--------------------------|
--------------------------|--------------------------|
--------------------------|--------------------------|
--------------------------|--------------------------|
--6-6-6-6-6-6-6-6-6-6-6-6-|--6-6-6-6-6-6-6-6-6-6-7-7-|
--------------------------|--------------------------|


                                                 >
  S S S S S S S S S S S S    S S S S S S S S S S S S
--------------------------|--------------------------|
--------------------------|--------------------------|
--------------------------|--------------------------|
--------------------------|--------------------------|
--6-6-6-6-6-6-6-6-6-6-6-6-|--6-6-6-6-6-6-6-6-6-6-7-7-|
--------------------------|--------------------------|


  S S S S S S S S S S S S     S  S  S  S  S  S S S S S S S
--------------------------|--------------------------------|
--------------------------|--------------------------------|
--------------------------|--------------------------------|
--5-5-5-5-5-5-6-6-6-6-6-6-|--10-10-10-10-10-10-6-6-6-6-6-6-|
--------------------------|--------------------------------|
--------------------------|--------------------------------|


  S S S S S S S S S S S S    S S S S S S  S  S  S  S  S  S
--------------------------|--------------------------------|
--------------------------|--------------------------------|
--------------------------|--8-8-8-8-8-8-10-10-10-10-10-10-|
--5-5-5-5-5-5-6-6-6-6-6-6-|--------------------------------|
--------------------------|--------------------------------|
--------------------------|--------------------------------|


  S S S S S S  S  S  S  S  S  S
--------------------------------|
--------------------------------|
--9-9-9-9-9-9-10-10-10-10-10-10-|
--------------------------------|
--------------------------------|
--------------------------------|


   S  S  S  S  S  S  S  S  S  S  S  S
--------------------------------------|
--13-13-13-13-13-13-------------------|
--------------------10-10-10-10-10-10-|
--------------------------------------|
--------------------------------------|
--------------------------------------|


  S S S S S S  S  S  S  S  S  S    S S S S S S  S  S  S  S  S  S
--------------------------------|--------------------------------|
--------------------------------|--------------------------------|
--9-9-9-9-9-9-10-10-10-10-10-10-|--------------------------------|
--------------------------------|--9-9-9-9-9-9-10-10-10-10-10-10-|
--------------------------------|--------------------------------|
--------------------------------|--------------------------------|


   S  S  S  S S S S S  S  S  S  S
----------------------------------|
----------------------------------|
--10-10-10-10-9-9-9-9-10-10-10-10-|
----------------------------------|
----------------------------------|
----------------------------------|


   S  S  S  S  S  S  S  S  S  S  S  S
--------------------11-11-11-11-11-11-|
--13-13-13-13-13-13-------------------|
--------------------------------------|
--------------------------------------|
--------------------------------------|
--------------------------------------|


   S  S  S  S  S  S S S S S S S    S S S S S S S S S S S S
--10-10-10-10-10-10-7-7-7-7-7-7-|--7-7-7-7-4-4-4-4-3-3-3-3-|
--------------------------------|--------------------------|
--------------------------------|--------------------------|
--------------------------------|--------------------------|
--------------------------------|--------------------------|
--------------------------------|--------------------------|


  S S S S S S S S S S S S    S S S S S S S S S S S S
--2-2-2-2-2-2-2-2-2-2-2-2-|--------------------------|
--------------------------|--3-3-3-3-3-3-3-3-3-3-3-3-|
--------------------------|--------------------------|
--------------------------|--------------------------|
--------------------------|--------------------------|
--------------------------|--------------------------|


  S S S S S S S S S S S S    S S S S S S  E.   E.
--------------------------|--------------12----L---|
--------------------------|--8-8-8-8-9-9------------|
--------------------------|-------------------------|
--5-5-5-5-5-5-5-5-6-6-6-6-|-------------------------|
--------------------------|-------------------------|
--------------------------|-------------------------|


  E  E  Q     E  E     E  E  H           E  E  E  E  E  E
--------------------|-----------------|--------------------|
--------------------|-----------------|--------------------|
--------------------|-----------------|--------------------|
--------------------|--------4--------|--------------------|
--3--3--4b----3--3--|--3--2--2--------|-----3--3--5--5--2--|
--------------------|-----------------|--------------------|


  E  E  E  E  E  E     E  E  Q     E  E     E  E  H
--------------------|--------------------|-----------------|
--------------------|--------------------|-----------------|
--------------------|--------------------|-----------------|
-----4--4-----4-----|--------------------|--------4--------|
--2--------2-----2--|--3--3--4b----3--3--|--3--2--2--------|
--------------------|--------------------|-----------------|


  E  E  E  E  E  E     E  E  E  E  E  E     E  E  Q     E  E
--------------------|--------------------|--------------------|
--------------------|--------------------|--------------------|
--------------------|--------------------|--------------------|
--------------------|-----4--4-----4-----|--------------------|
-----3--3--5--5--2--|--2--------2-----2--|--3--3--4b----3--3--|
--------------------|--------------------|--------------------|


  E  E  H           E  E  E  E  E  E     E  E  E  E  E  E
-----------------|--------------------|--------------------|
-----------------|--------------------|--------------------|
-----------------|--------------------|--------------------|
--------4--------|--------------------|-----4--4-----4-----|
--3--2--2--------|-----3--3--5--5--2--|--2--------2-----2--|
-----------------|--------------------|--------------------|


  E  E  Q     E  E     E  E  H           E  E  E  E  E  E
--------------------|-----------------|--------------------|
--------------------|-----------------|--------------------|
--------------------|-----------------|--------------------|
--------------------|--------4--------|--------------------|
--3--3--4b----3--3--|--3--2--2--------|-----3--3--5--5--2--|
--------------------|-----------------|--------------------|


  E  E  E  E  E  E
--------------------||
--------------------||
--------------------||
-----4--4-----4-----||
--2--------2-----2--||
--------------------||

dudas???? 

Duration Legend
---------------
W - whole
H - half
Q - quarter
E - 8th
S - 16th
T - 32nd
X - 64th
. - note dotted
|-n-|  - n-tuplets


Tablature Legend
----------------
L - tied note
x - dead note
g - grace note
(n) - ghost note
> - accentuded note
NH - natural harmonic
AH - artificial harmonic
TH - tapped harmonic
SH - semi harmonic
PH - pitch harmonic
h - hammer on
p - pull off
b - bend
br - bendRelease
pb - preBend
pbr - preBendRelease
brb - bendReleaseBend
n/ - tremolo bar dip
n - tremolo bar dive
-/n - tremolo bar Release up
/n - tremolo bar inverted dip
/n - tremolo bar return
-n - tremolo bar Release down
S - shift slide
s - legato slide
/ -  slide into from below or out of upwards
 -  slide into from above or out of downwards
~ - vibrato
W - wide vibrato
tr - trill
TP - tremolo picking
T - tapping
S - slap
P - pop
< - fade in
^ - brush up
v - brush down
Suggest correction
Give kudos to tab author, rate the tab!
1 2 3 4 5
comments
print report bad tab
guest
You may want to rate the tab now too:
select rating
Wanna post a correction for this tab? Suggest correction