Oops, an error
Loading. Please wait.

Hijo De La Luna Bass Tab

version 1
version 1

Whole song

Interactive

3,549 views 6 this week
no commentswrite comment
1 2 3 4 5
please rate
add to favorites
launch autoscroll
font size
0
reset
guitar tuner
Autoscroll
slow
fast
+/-
esc
set tempo
stop
Help us to improve Ultimate-Guitar.com Take our survey!
×
Difficulty
intermediate
PUENTE
G----------------------------|
D----------------------------|
A-4(5X)----------------------|
E------4(5X)---5(5X)---2(5X)-|

VERSO
G--------------|
D--------------|
A4*-----4(6X---| 2X
E--------------|

G----------------------|
D----------------------|
A7(6X)------4(6X)------|
E-----7(6X)-------4----|(6X)

G-----------------6---|
D---------------------|
A------2(2X)-4(6x)----|
E5(10X)---------------|

G------------------------|
D------------------------|
A7(6X)-------4(6X)-------|
E------7(6X)-------4-----|(6X)

G-------------------------------|
D-------------------------------|
A---------------2-------4*----4-|
E---5------4--------4-----------|

G--------------------------|
D--------------------------|
A-4-------4---6----------6-|
E--------------------------|

CORO1
G------------------------|
D------------------------|
A------------------------|
E-4------4---2---------2-|

G------------------------|
D------------------------|
A-7-------6---6----6-----|
E------------------------|

G---------------------------|
D---------------------------|
A---------------------------|
E-4-------4---2-----------2-|

G--------------------------|
D--------------------------|
A-7-------6---6----6-------|
E--------------------------|

G--------------------------------|
D--------------------------------|
A-------------------------6(6X)--|
E-4(6X)----2(6X)----0(6X)--------|
2X

G--------------------------|
D--------------------------|
A---------4--------------4-|
E-4----------------4-------|

G------------------------------|
D------------------------------|
A-6-------6------4--------4----|
E------------------------------|

G----------------------------------|
D----------------------------------|
A----------------------------------|
E-7-------7------6--------6------5-|

(PUENTE)
(VERSO)
(CORO)
(PUENT)
(CORO)2X

PUENTE
G---------------------------------|
D---------------------------------|
A-4-------------------------------|
E-------4----------5-----------2--|
2X

VERSO
G---------6/9---8----4-------6------6-|
D-------------------------------------|
A-4*----------------------------------|
E-------------------------------------|

OUTRO
G-----------------------|
D-----------------------|
A7(6X)------4(6X)-------|
E-----7(6X)-------4-----|(6X)

G----------------------------|
D----------------------------|
A-----------------2--------4-|
E-5--------4---------4-------|

G--------------------------------|
D--------------------------------|
A-4(5X)------------------------4-|
E------4(5X)---5(5X)---2(5X)-----|

* let ring
Suggest correction new What's this?
You can suggest a correction to this tab. Community and Mods will review your correction and vote to approve or reject it.
comments
We did not receive enough feedback on this tab! Please rate:
print report bad tab
1 2 3 4 5
guest
You may want to rate the tab now too:
select rating
Please do not post tabs as comments. Select "correction" instead!