Oops, an error
Loading. Please wait.

Miedo (2O Acto - Sentimientos) Bass Tab

2 views 1 this week
no commentswrite comment
1 2 3 4 5
3 more votes to show rating
add to favorites
launch autoscroll
font size
0
reset
guitar tuner
×
Best way to learn
"Miedo (2o Acto - Sentimientos)"
Autoscroll
slow
fast
+/-
esc
set tempo
stop
                                Miedo

dudas???? 

Bajo
             E  E  E  E  Q    Q       Q    Q    E  E  E  E
G||-------|------------------------|------------------------|
D||-------|------------------------|------------------------|
A||-------|--5--5--5--5--5----5----|--5----5----5--4--4--4--|
E||-------|------------------------|------------------------|


  E  E  E  E  Q    Q       Q    Q    E  E  E  E
------------------------|------------------------|
------------------------|------------------------|
--5--5--5--5--5----5----|--5----5----5--4--4--4--|
------------------------|------------------------|


  E  E  E  E  Q    Q       Q    Q    E  E  E  E
------------------------|------------------------|
------------------------|------------------------|
--5--5--5--5--5----5----|--5----5----5--4--4--4--|
------------------------|------------------------|


  E  E  E  E  E  E  E  E     E  E  E  E  E  E  E  E
--------------------------|--------------------------|
--------------------------|--------------------------|
--1--1--1--1--1--1--1--1--|--0--0--0--0--0--0--0--0--|
--------------------------|--------------------------|


  E  E  E  E  Q    Q       Q    Q    E  E  E  E
------------------------|------------------------|
------------------------|------------------------|
--5--5--5--5--5----5----|--5----5----5--4--4--4--|
------------------------|------------------------|


  E  E  E  E  Q    Q       Q    Q    E  E  E  E
------------------------|------------------------|
------------------------|------------------------|
--5--5--5--5--5----5----|--5----5----5--4--4--4--|
------------------------|------------------------|


  E  E  E  E  Q    Q       Q    Q    E  E  E  E
------------------------|------------------------|
------------------------|------------------------|
--5--5--5--5--5----5----|--5----5----5--4--4--4--|
------------------------|------------------------|


  E  E  E  E  E  E  E  E     E  E  E  E  E  E  E  E
--------------------------|--------------------------|-------|
--------------------------|--------------------------|-------|
--1--1--1--1--1--1--1--1--|--0--0--0--0--0--0--0--0--|-------|
--------------------------|--------------------------|-------|


  E  E  E  E  Q    Q       Q    Q    E  E  E  E
------------------------|------------------------|
------------------------|------------------------|
--5--5--5--5--5----5----|--5----5----5--0--0--0--|
------------------------|------------------------|


  E  E  E  E  Q    Q       Q    Q    E  E  E  E
------------------------|------------------------|
------------------------|------------------------|
--4--4--4--4--4----4----|--4----4----4--0--0--0--|
------------------------|------------------------|


  E  E  E  E  Q    Q       Q    Q    E  E  E  E
------------------------|------------------------|
------------------------|------------------------|
--5--5--5--5--5----5----|--5----5----5--0--0--0--|
------------------------|------------------------|


  E  E  E  E  Q    Q       Q    Q    E  E  E  E
------------------------|------------------------|
------------------------|------------------------|
--4--4--4--4--4----4----|--4----4----4--0--0--0--|
------------------------|------------------------|


  E  E  E  E  Q    Q       Q    Q    E  E  E  E
------------------------|------------------------|
------------------------|------------------------|
--5--5--5--5--5----5----|--5----5----5--0--0--0--|
------------------------|------------------------|


  E  E  E  E  Q    Q       Q    Q    E  E  E  E
------------------------|------------------------|
------------------------|------------------------|
--4--4--4--4--4----4----|--4----4----4--0--0--0--|
------------------------|------------------------|


  E  E  E  E  Q    Q       Q    Q    E  E  E  E
------------------------|------------------------|
------------------------|------------------------|
--5--5--5--5--5----5----|--5----5----5--0--0--0--|
------------------------|------------------------|


  E  E  E  E  Q    Q       Q    Q    E  E  E  E
------------------------|------------------------|
------------------------|------------------------|
--4--4--4--4--4----4----|--4----4----4--0--0--0--|
------------------------|------------------------|


  Q    E  E  Q    E  E     Q    E  E  Q    E  E
------------------------|------------------------|
------------------------|------------------------|
------------------------|------------------------|
--0----0--0--0----0--0--|--0----0--0--0----0--0--|


  W                     W                   Q    E  E  Q    E  E
--------------------|--------------------|------------------------|
--------------------|--------------------|------------------------|
--4/----------------|--4----------------|------------------------|
--------------------|--------------------|--0----0--0--0----0--0--|


  Q    E  E  Q    E  E     W                     W
------------------------|--------------------|--------------------|
------------------------|--------------------|--------------------|
------------------------|--4/----------------|--4----------------|
--0----0--0--0----0--0--|--------------------|--------------------|


  Q    E  E  Q    E  E     Q    E  E  Q    E  E
------------------------|------------------------|
------------------------|------------------------|
------------------------|------------------------|
--0----0--0--0----0--0--|--0----0--0--0----0--0--|


  W                     W                   Q    E  E  Q    E  E
--------------------|--------------------|------------------------|
--------------------|--------------------|------------------------|
--4/----------------|--4----------------|------------------------|
--------------------|--------------------|--0----0--0--0----0--0--|


  Q    E  E  Q    E  E     W                     W
------------------------|--------------------|--------------------|
------------------------|--------------------|--------------------|
------------------------|--4/----------------|--4----------------|
--0----0--0--0----0--0--|--------------------|--------------------|


  E  E  E  E  Q    Q       Q    Q    E  E  E  E
------------------------|------------------------|
------------------------|------------------------|
--5--5--5--5--5----5----|--5----5----5--4--4--4--|
------------------------|------------------------|


  E  E  E  E  Q    Q       Q    Q    E  E  E  E
------------------------|------------------------|
------------------------|------------------------|
--5--5--5--5--5----5----|--5----5----5--4--4--4--|
------------------------|------------------------|


  E  E  E  E  Q    Q       Q    Q    E  E  E  E
------------------------|------------------------|
------------------------|------------------------|
--5--5--5--5--5----5----|--5----5----5--4--4--4--|
------------------------|------------------------|


  E  E  E  E  E  E  E  E     E  E  E  E  E  E  E  E
--------------------------|--------------------------|
--------------------------|--------------------------|
--1--1--1--1--1--1--1--1--|--0--0--0--0--0--0--0--0--|
--------------------------|--------------------------|


  E  E  E  E  Q    Q       Q    Q    E  E  E  E
------------------------|------------------------|
------------------------|------------------------|
--5--5--5--5--5----5----|--5----5----5--4--4--4--|
------------------------|------------------------|


  E  E  E  E  Q    Q       Q    Q    E  E  E  E
------------------------|------------------------|
------------------------|------------------------|
--5--5--5--5--5----5----|--5----5----5--4--4--4--|
------------------------|------------------------|


  E  E  E  E  Q    Q       Q    Q    E  E  E  E
------------------------|------------------------|
------------------------|------------------------|
--5--5--5--5--5----5----|--5----5----5--4--4--4--|
------------------------|------------------------|


  E  E  E  E  E  E  E  E     E  E  E  E  E  E  E  E
--------------------------|--------------------------|-----|
--------------------------|--------------------------|-----|
--1--1--1--1--1--1--1--1--|--0--0--0--0--0--0--0--0--|-----|
--------------------------|--------------------------|-----|


  E  E  E  E  Q    Q       Q    Q    E  E  E  E
------------------------|------------------------|
------------------------|------------------------|
--5--5--5--5--5----5----|--5----5----5--0--0--0--|
------------------------|------------------------|


  E  E  E  E  Q    Q       Q    Q    E  E  E  E
------------------------|------------------------|
------------------------|------------------------|
--4--4--4--4--4----4----|--4----4----4--0--0--0--|
------------------------|------------------------|


  E  E  E  E  Q    Q       Q    Q    E  E  E  E
------------------------|------------------------|
------------------------|------------------------|
--5--5--5--5--5----5----|--5----5----5--0--0--0--|
------------------------|------------------------|


  E  E  E  E  Q    Q       Q    Q    E  E  E  E
------------------------|------------------------|
------------------------|------------------------|
--4--4--4--4--4----4----|--4----4----4--0--0--0--|
------------------------|------------------------|


  E  E  E  E  Q    Q       Q    Q    E  E  E  E
------------------------|------------------------|
------------------------|------------------------|
--5--5--5--5--5----5----|--5----5----5--0--0--0--|
------------------------|------------------------|


  E  E  E  E  Q    Q       Q    Q    E  E  E  E
------------------------|------------------------|
------------------------|------------------------|
--4--4--4--4--4----4----|--4----4----4--0--0--0--|
------------------------|------------------------|


  E  E  E  E  Q    Q       Q    Q    E  E  E  E
------------------------|------------------------|
------------------------|------------------------|
--5--5--5--5--5----5----|--5----5----5--0--0--0--|
------------------------|------------------------|


  E  E  E  E  Q    Q       Q    Q    E  E  E  E
------------------------|------------------------|
------------------------|------------------------|
--4--4--4--4--4----4----|--4----4----4--0--0--0--|
------------------------|------------------------|


  Q    E  E  Q    E  E     Q    E  E  Q    E  E
------------------------|------------------------|
------------------------|------------------------|
------------------------|------------------------|
--0----0--0--0----0--0--|--0----0--0--0----0--0--|


  W                     W                   Q    E  E  Q    E  E
--------------------|--------------------|------------------------|
--------------------|--------------------|------------------------|
--4/----------------|--4----------------|------------------------|
--------------------|--------------------|--0----0--0--0----0--0--|


  Q    E  E  Q    E  E     W                     W
------------------------|--------------------|--------------------|
------------------------|--------------------|--------------------|
------------------------|--4/----------------|--4----------------|
--0----0--0--0----0--0--|--------------------|--------------------|


  Q    E  E  Q    E  E     Q    E  E  Q    E  E
------------------------|------------------------|
------------------------|------------------------|
------------------------|------------------------|
--0----0--0--0----0--0--|--0----0--0--0----0--0--|


  W                     W                   Q    E  E  Q    E  E
--------------------|--------------------|------------------------|
--------------------|--------------------|------------------------|
--4/----------------|--4----------------|------------------------|
--------------------|--------------------|--0----0--0--0----0--0--|


  Q    E  E  Q    E  E     W                     W
------------------------|--------------------|--------------------|
------------------------|--------------------|--------------------|
------------------------|--4/----------------|--4----------------|
--0----0--0--0----0--0--|--------------------|--------------------|


  E  E  E  E  Q    Q       Q    Q    E  E  E  E
------------------------|------------------------|
------------------------|------------------------|
--5--5--5--5--5----5----|--5----5----5--4--4--4--|
------------------------|------------------------|


  E  E  E  E  Q    Q       Q    Q    E  E  E  E
------------------------|------------------------|
------------------------|------------------------|
--5--5--5--5--5----5----|--5----5----5--4--4--4--|
------------------------|------------------------|


  E  E  E  E  Q    Q       Q    Q    E  E  E  E
------------------------|------------------------|
------------------------|------------------------|
--5--5--5--5--5----5----|--5----5----5--4--4--4--|
------------------------|------------------------|


  E  E  E  E  E  E  E  E     E  E  E  E  E  E  E  E
--------------------------|--------------------------|
--------------------------|--------------------------|
--1--1--1--1--1--1--1--1--|--0--0--0--0--0--0--0--0--|
--------------------------|--------------------------|


  E  E  E  E  Q    Q       Q    Q    E  E  E  E
------------------------|------------------------|
------------------------|------------------------|
--5--5--5--5--5----5----|--5----5----5--0--0--0--|
------------------------|------------------------|


  E  E  E  E  Q    Q       Q    Q    E  E  E  E
------------------------|------------------------|
------------------------|------------------------|
--4--4--4--4--4----4----|--4----4----4--0--0--0--|
------------------------|------------------------|


  E  E  E  E  Q    Q       Q    Q    E  E  E  E
------------------------|------------------------|
------------------------|------------------------|
--5--5--5--5--5----5----|--5----5----5--0--0--0--|
------------------------|------------------------|


  E  E  E  E  Q    Q       Q    Q    E  E  E  E
------------------------|------------------------|
------------------------|------------------------|
--4--4--4--4--4----4----|--4----4----4--0--0--0--|
------------------------|------------------------|


  Q    E  E  Q    E  E     Q    E  E  Q    E  E
------------------------|------------------------|
------------------------|------------------------|
------------------------|------------------------|
--0----0--0--0----0--0--|--0----0--0--0----0--0--|


  W                     W                   Q    E  E  Q    E  E
--------------------|--------------------|------------------------|
--------------------|--------------------|------------------------|
--4/----------------|--4----------------|------------------------|
--------------------|--------------------|--0----0--0--0----0--0--|


  Q    E  E  Q    E  E     W                     W
------------------------|--------------------|--------------------|
------------------------|--------------------|--------------------|
------------------------|--4/----------------|--4----------------|
--0----0--0--0----0--0--|--------------------|--------------------|


  Q    E  E  Q    E  E     Q    E  E  Q    E  E
------------------------|------------------------|
------------------------|------------------------|
------------------------|------------------------|
--0----0--0--0----0--0--|--0----0--0--0----0--0--|


  W                     W                   Q    E  E  Q    E  E
--------------------|--------------------|------------------------|
--------------------|--------------------|------------------------|
--4/----------------|--4----------------|------------------------|
--------------------|--------------------|--0----0--0--0----0--0--|


  Q    E  E  Q    E  E     W                     W
------------------------|--------------------|--------------------|
------------------------|--------------------|--------------------|
------------------------|--4/----------------|--4----------------|
--0----0--0--0----0--0--|--------------------|--------------------|


-------------------|-------------------|-------------------|
-------------------|-------------------|-------------------|
-------------------|-------------------|-------------------|
-------------------|-------------------|-------------------|


-------------------|-------------------|-------------------|
-------------------|-------------------|-------------------|
-------------------|-------------------|-------------------|
-------------------|-------------------|-------------------|


-------------------|-------------------|-------------------||
-------------------|-------------------|-------------------||
-------------------|-------------------|-------------------||
-------------------|-------------------|-------------------||

dudas???? 


Duration Legend
---------------
W - whole
H - half
Q - quarter
E - 8th
S - 16th
T - 32nd
X - 64th
. - note dotted
|-n-|  - n-tuplets


Tablature Legend
----------------
L - tied note
x - dead note
g - grace note
(n) - ghost note
> - accentuded note
NH - natural harmonic
AH - artificial harmonic
TH - tapped harmonic
SH - semi harmonic
PH - pitch harmonic
h - hammer on
p - pull off
b - bend
br - bendRelease
pb - preBend
pbr - preBendRelease
brb - bendReleaseBend
n/ - tremolo bar dip
n - tremolo bar dive
-/n - tremolo bar Release up
/n - tremolo bar inverted dip
/n - tremolo bar return
-n - tremolo bar Release down
S - shift slide
s - legato slide
/ -  slide into from below or out of upwards
 -  slide into from above or out of downwards
~ - vibrato
W - wide vibrato
tr - trill
TP - tremolo picking
T - tapping
S - slap
P - pop
< - fade in
^ - brush up
v - brush down
Suggest correction
Give kudos to tab author, rate the tab!
1 2 3 4 5
comments
print report bad tab
guest
You may want to rate the tab now too:
select rating
Wanna post a correction for this tab? Suggest correction