Oops, an error
Loading. Please wait.

Miedo (2O Acto - Sentimientos) Tab

17 views 1 this week
no commentswrite comment
1 2 3 4 5
3 more votes to show rating
add to favorites
launch autoscroll
font size
0
reset
how to read this tab
guitar tuner
Autoscroll
slow
fast
+/-
esc
set tempo
stop
Help us to improve Ultimate-Guitar.com Take our survey!
×
      dudas???? 

             E                      E  E  E  Q    Q
E||-------|--------------------------------------------|
B||-------|--------------------------------------------|
G||-------|--------------------------------------------|
D||-------|--7----------------------7--7--7--7----7----|
A||-------|--5----------------------5--5--5--5----5----|
E||-------|--------------------------------------------|


  Q    Q    E  E  E  E     E  E  E  E  Q    Q
------------------------|------------------------|
------------------------|------------------------|
------------------------|------------------------|
--7----7----7--6--6--6--|--7--7--7--7--7----7----|
--5----5----5--4--4--4--|--5--5--5--5--5----5----|
------------------------|------------------------|


  Q    Q    E  E  E  E     E  E  E  E  Q    Q
------------------------|------------------------|
------------------------|------------------------|
------------------------|------------------------|
--7----7----7--6--6--6--|--7--7--7--7--7----7----|
--5----5----5--4--4--4--|--5--5--5--5--5----5----|
------------------------|------------------------|


  Q    Q    E  E  E  E     E  E  E  E  E  E  E  E
------------------------|--------------------------|
------------------------|--------------------------|
------------------------|--------------------------|
--7----7----7--6--6--6--|--6--6--6--6--6--6--6--6--|
--5----5----5--4--4--4--|--4--4--4--4--4--4--4--4--|
------------------------|--------------------------|


  E  E  E  E  E  E  E  E     E  E  E  E  Q    Q
--------------------------|------------------------|
--------------------------|------------------------|
--------------------------|------------------------|
--6--6--6--6--6--6--6--6--|--7--7--7--7--7----7----|
--4--4--4--4--4--4--4--4--|--5--5--5--5--5----5----|
--------------------------|------------------------|


  Q    Q    E  E  E  E     E  E  E  E  Q    Q
------------------------|------------------------|
------------------------|------------------------|
------------------------|------------------------|
--7----7----7--6--6--6--|--7--7--7--7--7----7----|
--5----5----5--4--4--4--|--5--5--5--5--5----5----|
------------------------|------------------------|


  Q    Q    E  E  E  E     E  E  E  E  Q    Q
------------------------|------------------------|
------------------------|------------------------|
------------------------|------------------------|
--7----7----7--6--6--6--|--7--7--7--7--7----7----|
--5----5----5--4--4--4--|--5--5--5--5--5----5----|
------------------------|------------------------|


  Q    Q    E  E  E  E     E  E  E  E  E  E  E  E
------------------------|--------------------------|
------------------------|--------------------------|
------------------------|--------------------------|
--7----7----7--6--6--6--|--6--6--6--6--6--6--6--6--|
--5----5----5--4--4--4--|--4--4--4--4--4--4--4--4--|
------------------------|--------------------------|


  E  E  E  E  E  E  E  E             E  E  E  E  Q    Q
--------------------------|-------|------------------------|
--------------------------|-------|------------------------|
--------------------------|-------|------------------------|
--6--6--6--6--6--6--6--6--|-------|--7--7--7--7--7----7----|
--4--4--4--4--4--4--4--4--|-------|--5--5--5--5--5----5----|
--------------------------|-------|------------------------|


  Q    Q    E  E  E  E     E  E  E  E  Q    Q
------------------------|------------------------|
------------------------|------------------------|
------------------------|------------------------|
--7----7----7--7--7--7--|--6--6--6--6--6----6----|
--5----5----5--5--5--5--|--4--4--4--4--4----4----|
------------------------|------------------------|


  Q    Q    E  E  E  E     E  E  E  E  Q    Q
------------------------|------------------------|
------------------------|------------------------|
------------------------|------------------------|
--6----6----6--6--6--6--|--7--7--7--7--7----7----|
--4----4----4--4--4--4--|--5--5--5--5--5----5----|
------------------------|------------------------|


  Q    Q    E  E  E  E     E  E  E  E  Q    Q
------------------------|------------------------|
------------------------|------------------------|
------------------------|------------------------|
--7----7----7--7--7--7--|--6--6--6--6--6----6----|
--5----5----5--5--5--5--|--4--4--4--4--4----4----|
------------------------|------------------------|


  Q    Q    E  E  E  E     E  E  E  E  Q    Q
------------------------|------------------------|
------------------------|------------------------|
------------------------|------------------------|
--6----6----6--6--6--6--|--7--7--7--7--7----7----|
--4----4----4--4--4--4--|--5--5--5--5--5----5----|
------------------------|------------------------|


  Q    Q    E  E  E  E     E  E  E  E  Q    Q
------------------------|------------------------|
------------------------|------------------------|
------------------------|------------------------|
--7----7----7--7--7--7--|--6--6--6--6--6----6----|
--5----5----5--5--5--5--|--4--4--4--4--4----4----|
------------------------|------------------------|


  Q    Q    E  E  E  E     E  E  E  E  Q    Q
------------------------|------------------------|
------------------------|------------------------|
------------------------|------------------------|
--6----6----6--6--6--6--|--7--7--7--7--7----7----|
--4----4----4--4--4--4--|--5--5--5--5--5----5----|
------------------------|------------------------|


  Q    Q    E  E  E  E     E  E  E  E  Q    Q
------------------------|------------------------|
------------------------|------------------------|
------------------------|------------------------|
--7----7----7--7--7--7--|--6--6--6--6--6----6----|
--5----5----5--5--5--5--|--4--4--4--4--4----4----|
------------------------|------------------------|


  Q    Q    E  E  E  E     Q    E  E  Q    E  E
------------------------|------------------------|
------------------------|------------------------|
------------------------|------------------------|
--6----6----6--6--6--6--|--9----9--9--9----9--9--|
--4----4----4--4--4--4--|--7----7--7--7----7--7--|
------------------------|--0----0--0--0----0--0--|


  Q    E  E  Q    E  E     H          H
------------------------|----------------------|
------------------------|----------------------|
------------------------|----------------------|
--9----9--9--9----9--9--|--8s--------13--------|
--7----7--7--7----7--7--|--6s--------11--------|
--0----0--0--0----0--0--|----------------------|


   S  S  S  S S S S S S S S S S S S S    Q    E  E  Q    E  E
--------------------------------------|------------------------|
--------------------------------------|------------------------|
--------------------------------------|------------------------|
--13-12-11-10-9-8-7-6-5-4-3-2-1-0-----|--9----9--9--9----9--9--|
--11-10--9--8-7-6-5-4-3-2-1-0-----4-3-|--7----7--7--7----7--7--|
------------------------------4-3-2-1-|--0----0--0--0----0--0--|


  Q    E  E  Q    E  E     H          H
------------------------|-----------------------|
------------------------|-----------------------|
------------------------|-----------------------|
--9----9--9--9----9--9--|--8s--------13s--------|
--7----7--7--7----7--7--|--6s--------11s--------|
--0----0--0--0----0--0--|-----------------------|


   S  S  S  S S S S S S S S S S S S S    Q    E  E  Q    E  E
--------------------------------------|------------------------|
--------------------------------------|------------------------|
--------------------------------------|------------------------|
--13-12-11-10-9-8-7-6-5-4-3-2-1-0-----|--9----9--9--9----9--9--|
--11-10--9--8-7-6-5-4-3-2-1-0-----4-3-|--7----7--7--7----7--7--|
------------------------------4-3-2-1-|--0----0--0--0----0--0--|


  Q    E  E  Q    E  E     H          H
------------------------|-----------------------|
------------------------|-----------------------|
------------------------|-----------------------|
--9----9--9--9----9--9--|--8s--------13s--------|
--7----7--7--7----7--7--|--6s--------11s--------|
--0----0--0--0----0--0--|-----------------------|


   S  S  S  S S S S S S S S S S S S S    Q    E  E  Q    E  E
--------------------------------------|------------------------|
--------------------------------------|------------------------|
--------------------------------------|------------------------|
--13-12-11-10-9-8-7-6-5-4-3-2-1-0-----|--9----9--9--9----9--9--|
--11-10--9--8-7-6-5-4-3-2-1-0-----4-3-|--7----7--7--7----7--7--|
------------------------------4-3-2-1-|--0----0--0--0----0--0--|


  Q    E  E  Q    E  E     H          H
------------------------|-----------------------|
------------------------|-----------------------|
------------------------|-----------------------|
--9----9--9--9----9--9--|--8s--------13s--------|
--7----7--7--7----7--7--|--6s--------11s--------|
--0----0--0--0----0--0--|-----------------------|


   S  S  S  S S S S S S S S S S S S S    E  E  E  E  Q    Q
--------------------------------------|------------------------|
--------------------------------------|------------------------|
--------------------------------------|------------------------|
--13-12-11-10-9-8-7-6-5-4-3-2-1-0-----|--7--7--7--7--7----7----|
--11-10--9--8-7-6-5-4-3-2-1-0-----4-3-|--5--5--5--5--5----5----|
------------------------------4-3-2-1-|------------------------|


  Q    Q    E  E  E  E     E  E  E  E  Q    Q
------------------------|------------------------|
------------------------|------------------------|
------------------------|------------------------|
--7----7----7--6--6--6--|--7--7--7--7--7----7----|
--5----5----5--4--4--4--|--5--5--5--5--5----5----|
------------------------|------------------------|


  Q    Q    E  E  E  E     E  E  E  E  Q    Q
------------------------|------------------------|
------------------------|------------------------|
------------------------|------------------------|
--7----7----7--6--6--6--|--7--7--7--7--7----7----|
--5----5----5--4--4--4--|--5--5--5--5--5----5----|
------------------------|------------------------|


  Q    Q    E  E  E  E     E  E  E  E  E  E  E  E
------------------------|--------------------------|
------------------------|--------------------------|
------------------------|--------------------------|
--7----7----7--6--6--6--|--6--6--6--6--6--6--6--6--|
--5----5----5--4--4--4--|--4--4--4--4--4--4--4--4--|
------------------------|--------------------------|


  E  E  E  E  E  E  E  E     E  E  E  E  Q    Q
--------------------------|------------------------|
--------------------------|------------------------|
--------------------------|------------------------|
--6--6--6--6--6--6--6--6--|--7--7--7--7--7----7----|
--4--4--4--4--4--4--4--4--|--5--5--5--5--5----5----|
--------------------------|------------------------|


  Q    Q    E  E  E  E     E  E  E  E  Q    Q
------------------------|------------------------|
------------------------|------------------------|
------------------------|------------------------|
--7----7----7--6--6--6--|--7--7--7--7--7----7----|
--5----5----5--4--4--4--|--5--5--5--5--5----5----|
------------------------|------------------------|


  Q    Q    E  E  E  E     E  E  E  E  Q    Q
------------------------|------------------------|
------------------------|------------------------|
------------------------|------------------------|
--7----7----7--6--6--6--|--7--7--7--7--7----7----|
--5----5----5--4--4--4--|--5--5--5--5--5----5----|
------------------------|------------------------|


  Q    Q    E  E  E  E     E  E  E  E  E  E  E  E
------------------------|--------------------------|
------------------------|--------------------------|
------------------------|--------------------------|
--7----7----7--6--6--6--|--6--6--6--6--6--6--6--6--|
--5----5----5--4--4--4--|--4--4--4--4--4--4--4--4--|
------------------------|--------------------------|


  E  E  E  E  E  E  E  E           E  E  E  E  Q    Q
--------------------------|-----|------------------------|
--------------------------|-----|------------------------|
--------------------------|-----|------------------------|
--6--6--6--6--6--6--6--6--|-----|--7--7--7--7--7----7----|
--4--4--4--4--4--4--4--4--|-----|--5--5--5--5--5----5----|
--------------------------|-----|------------------------|


  Q    Q    E  E  E  E     E  E  E  E  Q    Q
------------------------|------------------------|
------------------------|------------------------|
------------------------|------------------------|
--7----7----7--7--7--7--|--6--6--6--6--6----6----|
--5----5----5--5--5--5--|--4--4--4--4--4----4----|
------------------------|------------------------|


  Q    Q    E  E  E  E     E  E  E  E  Q    Q
------------------------|------------------------|
------------------------|------------------------|
------------------------|------------------------|
--6----6----6--6--6--6--|--7--7--7--7--7----7----|
--4----4----4--4--4--4--|--5--5--5--5--5----5----|
------------------------|------------------------|


  Q    Q    E  E  E  E     E  E  E  E  Q    Q
------------------------|------------------------|
------------------------|------------------------|
------------------------|------------------------|
--7----7----7--7--7--7--|--6--6--6--6--6----6----|
--5----5----5--5--5--5--|--4--4--4--4--4----4----|
------------------------|------------------------|


  Q    Q    E  E  E  E     E  E  E  E  Q    Q
------------------------|------------------------|
------------------------|------------------------|
------------------------|------------------------|
--6----6----6--6--6--6--|--7--7--7--7--7----7----|
--4----4----4--4--4--4--|--5--5--5--5--5----5----|
------------------------|------------------------|


  Q    Q    E  E  E  E     E  E  E  E  Q    Q
------------------------|------------------------|
------------------------|------------------------|
------------------------|------------------------|
--7----7----7--7--7--7--|--6--6--6--6--6----6----|
--5----5----5--5--5--5--|--4--4--4--4--4----4----|
------------------------|------------------------|


  Q    Q    E  E  E  E     E  E  E  E  Q    Q
------------------------|------------------------|
------------------------|------------------------|
------------------------|------------------------|
--6----6----6--6--6--6--|--7--7--7--7--7----7----|
--4----4----4--4--4--4--|--5--5--5--5--5----5----|
------------------------|------------------------|


  Q    Q    E  E  E  E     E  E  E  E  Q    Q
------------------------|------------------------|
------------------------|------------------------|
------------------------|------------------------|
--7----7----7--7--7--7--|--6--6--6--6--6----6----|
--5----5----5--5--5--5--|--4--4--4--4--4----4----|
------------------------|------------------------|


  Q    Q    E  E  E  E     Q    E  E  Q    E  E
------------------------|------------------------|
------------------------|------------------------|
------------------------|------------------------|
--6----6----6--6--6--6--|--9----9--9--9----9--9--|
--4----4----4--4--4--4--|--7----7--7--7----7--7--|
------------------------|--0----0--0--0----0--0--|


  Q    E  E  Q    E  E     H          H
------------------------|----------------------|
------------------------|----------------------|
------------------------|----------------------|
--9----9--9--9----9--9--|--8s--------13--------|
--7----7--7--7----7--7--|--6s--------11--------|
--0----0--0--0----0--0--|----------------------|


   S  S  S  S S S S S S S S S S S S S    Q    E  E  Q    E  E
--------------------------------------|------------------------|
--------------------------------------|------------------------|
--------------------------------------|------------------------|
--13-12-11-10-9-8-7-6-5-4-3-2-1-0-----|--9----9--9--9----9--9--|
--11-10--9--8-7-6-5-4-3-2-1-0-----4-3-|--7----7--7--7----7--7--|
------------------------------4-3-2-1-|--0----0--0--0----0--0--|


  Q    E  E  Q    E  E     H          H
------------------------|-----------------------|
------------------------|-----------------------|
------------------------|-----------------------|
--9----9--9--9----9--9--|--8s--------13s--------|
--7----7--7--7----7--7--|--6s--------11s--------|
--0----0--0--0----0--0--|-----------------------|


   S  S  S  S S S S S S S S S S S S S    Q    E  E  Q    E  E
--------------------------------------|------------------------|
--------------------------------------|------------------------|
--------------------------------------|------------------------|
--13-12-11-10-9-8-7-6-5-4-3-2-1-0-----|--9----9--9--9----9--9--|
--11-10--9--8-7-6-5-4-3-2-1-0-----4-3-|--7----7--7--7----7--7--|
------------------------------4-3-2-1-|--0----0--0--0----0--0--|


  Q    E  E  Q    E  E     H          H
------------------------|-----------------------|
------------------------|-----------------------|
------------------------|-----------------------|
--9----9--9--9----9--9--|--8s--------13s--------|
--7----7--7--7----7--7--|--6s--------11s--------|
--0----0--0--0----0--0--|-----------------------|


   S  S  S  S S S S S S S S S S S S S    Q    E  E  Q    E  E
--------------------------------------|------------------------|
--------------------------------------|------------------------|
--------------------------------------|------------------------|
--13-12-11-10-9-8-7-6-5-4-3-2-1-0-----|--9----9--9--9----9--9--|
--11-10--9--8-7-6-5-4-3-2-1-0-----4-3-|--7----7--7--7----7--7--|
------------------------------4-3-2-1-|--0----0--0--0----0--0--|


  Q    E  E  Q    E  E     H          H
------------------------|-----------------------|
------------------------|-----------------------|
------------------------|-----------------------|
--9----9--9--9----9--9--|--8s--------13s--------|
--7----7--7--7----7--7--|--6s--------11s--------|
--0----0--0--0----0--0--|-----------------------|


                                          TP
   S  S  S  S S S S S S S S S S S S S     W
--------------------------------------|--11b----------------|
--------------------------------------|---9b----------------|
--------------------------------------|---------------------|
--13-12-11-10-9-8-7-6-5-4-3-2-1-0-----|---------------------|
--11-10--9--8-7-6-5-4-3-2-1-0-----4-3-|---------------------|
------------------------------4-3-2-1-|---------------------|


                       TP
  W                    W                    W
--L----------------|--14b----------------|--L----------------|
--L----------------|--12b----------------|--L----------------|
-------------------|---------------------|-------------------|
-------------------|---------------------|-------------------|
-------------------|---------------------|-------------------|
-------------------|---------------------|-------------------|


   TP                                        TP
   W                    W                    W
--16b----------------|--L----------------|--21b----------------|
--14b----------------|--L----------------|--20b----------------|
---------------------|-------------------|---------------------|
---------------------|-------------------|---------------------|
---------------------|-------------------|---------------------|
---------------------|-------------------|---------------------|


  W                    Q     E   E   Q     E   E
--L----------------|--13----12--13--12----11--12--|
--L----------------|------------------------------|
-------------------|------------------------------|
-------------------|------------------------------|
-------------------|------------------------------|
-------------------|------------------------------|


   Q     H         E   E      E   E   Q     Q     Q
--11----14--------13--14--|--15--14--12----14----11----|
--------------------------|----------------------------|
--------------------------|----------------------------|
--------------------------|----------------------------|
--------------------------|----------------------------|
--------------------------|----------------------------|


   H.            E   E      E   E   Q     Q     E   E
--12--------------------|----------------10--------14--|
----------------12--13--|--12--------------------------|
------------------------|------13--12----------13------|
------------------------|------------------------------|
------------------------|------------------------------|
------------------------|------------------------------|


  Q     Q     H            H.            E   E
--L----------16--------|--18------------17--18--|
-----------------------|------------------------|
-------15--------------|------------------------|
-----------------------|------------------------|
-----------------------|------------------------|
-----------------------|------------------------|


   Q     H.              Q    E  E  Q    E  E
--17----14------------|------------------------|
----------------------|------------------------|
----------------------|------------------------|
----------------------|--9----9--9--9----9--9--|
----------------------|--7----7--7--7----7--7--|
----------------------|--0----0--0--0----0--0--|


  Q    E  E  Q    E  E     H          H
------------------------|----------------------|
------------------------|----------------------|
------------------------|----------------------|
--9----9--9--9----9--9--|--8s--------13--------|
--7----7--7--7----7--7--|--6s--------11--------|
--0----0--0--0----0--0--|----------------------|


   S  S  S  S S S S S S S S S S S S S    Q    E  E  Q    E  E
--------------------------------------|------------------------|
--------------------------------------|------------------------|
--------------------------------------|------------------------|
--13-12-11-10-9-8-7-6-5-4-3-2-1-0-----|--9----9--9--9----9--9--|
--11-10--9--8-7-6-5-4-3-2-1-0-----4-3-|--7----7--7--7----7--7--|
------------------------------4-3-2-1-|--0----0--0--0----0--0--|


  Q    E  E  Q    E  E     H          H
------------------------|-----------------------|
------------------------|-----------------------|
------------------------|-----------------------|
--9----9--9--9----9--9--|--8s--------13s--------|
--7----7--7--7----7--7--|--6s--------11s--------|
--0----0--0--0----0--0--|-----------------------|


   S  S  S  S S S S S S S S S S S S S    Q    E  E  Q    E  E
--------------------------------------|------------------------|
--------------------------------------|------------------------|
--------------------------------------|------------------------|
--13-12-11-10-9-8-7-6-5-4-3-2-1-0-----|--9----9--9--9----9--9--|
--11-10--9--8-7-6-5-4-3-2-1-0-----4-3-|--7----7--7--7----7--7--|
------------------------------4-3-2-1-|--0----0--0--0----0--0--|


  Q    E  E  Q    E  E     H          H
------------------------|-----------------------|
------------------------|-----------------------|
------------------------|-----------------------|
--9----9--9--9----9--9--|--8s--------13s--------|
--7----7--7--7----7--7--|--6s--------11s--------|
--0----0--0--0----0--0--|-----------------------|


   S  S  S  S S S S S S S S S S S S S    Q    E  E  Q    E  E
--------------------------------------|------------------------|
--------------------------------------|------------------------|
--------------------------------------|------------------------|
--13-12-11-10-9-8-7-6-5-4-3-2-1-0-----|--9----9--9--9----9--9--|
--11-10--9--8-7-6-5-4-3-2-1-0-----4-3-|--7----7--7--7----7--7--|
------------------------------4-3-2-1-|--0----0--0--0----0--0--|


  Q    E  E  Q    E  E     H          H
------------------------|-----------------------|
------------------------|-----------------------|
------------------------|-----------------------|
--9----9--9--9----9--9--|--8s--------13s--------|
--7----7--7--7----7--7--|--6s--------11s--------|
--0----0--0--0----0--0--|-----------------------|


   S  S  S  S S S S S S S S S S S S S
--------------------------------------|-------------------|
--------------------------------------|-------------------|
--------------------------------------|-------------------|
--13-12-11-10-9-8-7-6-5-4-3-2-1-0-----|-------------------|
--11-10--9--8-7-6-5-4-3-2-1-0-----4-3-|-------------------|
------------------------------4-3-2-1-|-------------------|


-------------------|-------------------|-------------------|
-------------------|-------------------|-------------------|
-------------------|-------------------|-------------------|
-------------------|-------------------|-------------------|
-------------------|-------------------|-------------------|
-------------------|-------------------|-------------------|


-------------------|-------------------|-------------------|
-------------------|-------------------|-------------------|
-------------------|-------------------|-------------------|
-------------------|-------------------|-------------------|
-------------------|-------------------|-------------------|
-------------------|-------------------|-------------------|


-------------------|-------------------||
-------------------|-------------------||
-------------------|-------------------||
-------------------|-------------------||
-------------------|-------------------||
-------------------|-------------------||

dudas???? 


Duration Legend
---------------
W - whole
H - half
Q - quarter
E - 8th
S - 16th
T - 32nd
X - 64th
. - note dotted
|-n-|  - n-tuplets


Tablature Legend
----------------
L - tied note
x - dead note
g - grace note
(n) - ghost note
> - accentuded note
NH - natural harmonic
AH - artificial harmonic
TH - tapped harmonic
SH - semi harmonic
PH - pitch harmonic
h - hammer on
p - pull off
b - bend
br - bendRelease
pb - preBend
pbr - preBendRelease
brb - bendReleaseBend
n/ - tremolo bar dip
n - tremolo bar dive
-/n - tremolo bar Release up
/n - tremolo bar inverted dip
/n - tremolo bar return
-n - tremolo bar Release down
S - shift slide
s - legato slide
/ -  slide into from below or out of upwards
 -  slide into from above or out of downwards
~ - vibrato
W - wide vibrato
tr - trill
TP - tremolo picking
T - tapping
S - slap
P - pop
< - fade in
^ - brush up
v - brush down
Suggest correction
Give kudos to tab author, rate the tab!
1 2 3 4 5
comments
print report bad tab
guest
You may want to rate the tab now too:
select rating
Wanna post a correction for this tab? Suggest correction