Oops, an error
Loading. Please wait.

Fight Club Tab

67 views 6 this week
no commentswrite comment
1 2 3 4 5
2 more votes to show rating
add to favorites
launch autoscroll
font size
0
reset
how to read this tab
guitar tuner
Autoscroll
slow
fast
+/-
esc
set tempo
stop
Help us to improve Ultimate-Guitar.com Take our survey!
×
Author
Difficulty
intermediate
About this tab version
Tab for Fight Club by Strawberry Girls. Contains all the major scale runs and intro. Was this info helpful? Yes No
-------------------------------------------------------------------------------
                            Fight Club - Strawberry Girls
-------------------------------------------------------------------------------
Tabbed by: Micah Hobson
E-mail: shadowbreakmusic@gmail.com

[Intro]
e|-5---5---3---5---5---3-10-5---5---3---5---5---3---5-----------------|
B|-6---5---3---6---5---3----6---5---3---6---5---3---6-----------------|
G|-7---5---3---7---5---3----7---5---3---7---5---3---7---7-7-7-7-7-7-7-|
D|--------------------------------------------------------------------|
A|--------------------------------------------------------------------|
E|--------------------------------------------------------------------|

e|-------5-----5-----5------------5-----5-----5-------------3-----3-----3-------------5----5-----10-------|
B|---6-----6-----6-----6---6---5----5-----5-----5---5---3-----3-----3-----3---3---6-----6----6------10----|
G|-7---7-----7-----7-----7---5---5----5-----5-----5---3---3-----3-----3-----3---3---7-----7----7-------10-|
D|--------------------------------------------------------------------------------------------------------|
A|--------------------------------------------------------------------------------------------------------|
E|--------------------------------------------------------------------------------------------------------|

e|-------5-----5-----5------------5-----5-----5-------------3-----3-----3------------------------------------|
B|---6-----6-----6-----6---6---5----5-----5-----5---5---3-----3-----3-----3---3-------3----3----3-----3------|
G|-7---7-----7-----7-----7---5---5----5-----5-----5---3---3-----3-----3-----3---3---2---2----2----2-----2-0h2|
D|--------------------------------------------------------------------------------3-------0----0----0--------|
A|-----------------------------------------------------------------------------------------------------------|
E|-----------------------------------------------------------------------------------------------------------|

e|---------------------------------------------------------------------------------------------------------|
B|-------3-----3-----3-----------3-----3-----3------------3-----3-----3------------3-----3-----3-----------|
G|---2-----2-----2-----2---2-0h2---2-----2-----2----2-0h2---2-----2-----2----2-0h2---2-----2-----2---2-0h2-|
D|-0---0-----0-----0-----7-----------0-----0-----0------------0-----0-----0------------0-----0-----0-------|
A|---------------------------------------------------------------------------------------------------------|
E|---------------------------------------------------------------------------------------------------------|

e|-------1-----0-----1---1h3-------1-----0-----1---1h3-----------------------------------------------------|
B|---------3-----3-----3-------------3-----3-----3-----------3-----3-----3-------------3-----3-----3-------|
G|---2-------2-----2-----------2-------2-----2-----------2-----2-----2-----2-0h2---2-----2-----2-----2-0h2-|
D|-0---0---------------------0---0---------------------0---0-----0-----0---------0---0-----0-----0---------|
A|---------------------------------------------------------------------------------------------------------|
E|---------------------------------------------------------------------------------------------------------|

[Riff 1]
e|-------------------------------------------------------------------------------------------------|
B|-6-----6-----6-----6-----6-------6-----6-----6-----6-----6-------6-----6-----6-----6-----6-------|
G|---7-7---7-7---7-7---7-7---7-7-5---7-7---7-7---7-7---7-7---7-7-5---7-7---7-7---7-7---7-7---7-7-5-|
D|-------------------------------------------------------------------------------------------------|
A|-------------------------------------------------------------------------------------------------|
E|-------------------------------------------------------------------------------------------------|

e|-5-5-5-5-5-5-5-5-5-5-5-5-5-5-5-5-|
B|-6-6-6-6-6-6-6-6-6-6-6-6-6-6-6-6-|
G|-7-7-7-7-7-7-7-7-7-7-7-7-7-7-7-7-|
D|---------------------------------|
A|---------------------------------|
E|---------------------------------|


[Riff 2]
Repeat x2
e|----------------------------------------------------------|
B|---------6-5----------------------------------------------|
G|-7-7-7-7-----5----------5----------------5----------------|
D|---------------7s-7-5-7---7--7-7-7-7-5-7---7s-7\5-3h5-3\2-|
A|----------------------------------------------------------|
E|----------------------------------------------------------|

e|---------------------------------------------------------|
B|---------6-5----------------------------------------6----|
G|-7-7-7-7-----5----------5----------------5-7s-7-5-7---7s-|
D|---------------7s-7-5-7---7--7-7-7-7-5-7-----------------|
A|---------------------------------------------------------|
E|---------------------------------------------------------|

[Riff 3]
Repeat x2
e|---------------------------------------------------------------------------------------------------------|
B|---------------------------------------------------------------------------------------------------------|
G|---------------------------------------------------------------------------------------------------------|
D|---------------------------------------------------------------------------------------------------------|
A|-3-5-5-5s-3-5-5-5s-3-5-5-5s-3-5-5-5s-3-5-5-5-3-5-5-5-3-5-5-5s-3-5-5-5s-3-5-5-5s-3-5-5-5s-3-5-5-5-3-5-5-5-|
E|---------------------------------------------------------------------------------------------------------|

Repeat x2
e|---------------------------------------------------------------------------------------------------|
B|--------------------------------------------6h8p6--------------------------------------------6h8p6-|
G|------------------------------------5h7-7-7------------------------------------------5h7-7-7-------|
D|----------3--------3-5-5-5s-5/7-7-7------------------------3--------3-5-5-5s-5/7-7-7---------------|
A|-3-5-5-5s---5-5-5s--------------------------------3-5-5-5s---5-5-5s--------------------------------|
E|---------------------------------------------------------------------------------------------------|

Repeat x2
e|----------------------------------------------------------------------------------------------------------|
B|-6h8p6-6-----6-6-------------------------------------6h8p6-6-----6-6--------------------------------------|
G|---------7-7-----7-7-5-5-7-7-5-5-----5-5---------------------7-7-----7-7-5-5-7-7-5-5-----5-5--------5s-7s-|
D|--------------------------------7-7-----7-7-6s-5s-3s---------------------------------7-7-----7-7-6s-------|
A|----------------------------------------------------------------------------------------------------------|
E|----------------------------------------------------------------------------------------------------------|

e|----------------------------------------------------------------------------------------|
B|-6h8p6-6-----6-6-------------------------------------6h8p6-6-----6-6-----6-8h6-8b-8b-8b-|
G|---------7-7-----7-7-5-5-7-7-5-5-----5-5---------------------7-7-----7-7----------------|
D|--------------------------------7-7-----7-7-6s-5s-3s------------------------------------|
A|----------------------------------------------------------------------------------------|
E|----------------------------------------------------------------------------------------|

Repeat x4
e|---------------------------------------------------------------------------------------------------------|
B|---------------------------------------------------------------------------------------------------------|
G|---------------------------------------------------------------------------------------------------------|
D|---------------------------------------------------------------------------------------------------------|
A|-3-5-5-5s-3-5-5-5s-3-5-5-5s-3-5-5-5s-3-5-5-5-3-5-5-5-3-5-5-5s-3-5-5-5s-3-5-5-5s-3-5-5-5s-3-5-5-5-3-5-5-5-|
E|---------------------------------------------------------------------------------------------------------|

[Riff 4]
e|-----------------------------------------------------------------------------------------|
B|-----------------------------------------------------------------------------------------|
G|-----------------------------------------------------------------------------------------|
D|-----------------------------------------------------------------------------------------|
A|-5-0-0-0-7-0-0-0-10-0-0-0-12-0-0-0-14-0-17-0-5-0-0-0-7-0-0-0-10-0-0-0-12-0-0-0-14-0-17-0-|
E|-----------------------------------------------------------------------------------------|

e|---------------------------------------------------------------------------------------------|
B|---------------------------------------------------------------------------------------------|
G|---------------------------------------------------------------------------------------------|
D|---------------------------------------------------------------------------------------------|
A|-5p0-5p0-7p0-7p0-10p0-10p0-12p0-12p0-14p0-17p0-5p0-5p0-7p0-7p0-10p0-10p0-12p0-12p0-15p0-17p0-|
E|---------------------------------------------------------------------------------------------|

e|---------------------------------------------------------------------------------------|
B|---------------------------------------------------------------------------------------|
G|---------------------------------------------------------------------------------------|
D|-----------------------------------------------------------------------------15---17---|
A|-5p0-5p0-7p0-7p0-10p0-10p0-12p0-12p0-14p0-17p0-12p0-12p0-15p0-15p0-17p0-17p0----0----0-|
E|---------------------------------------------------------------------------------------|

e|--------------------------------------------------------------------------|
B|--------------------------------------------------------------------------|
G|------------10------------10------------10------------10------------12-10-|
D|-0-10h11h12----0-10h11h12----0-10h11h12----0-10h11h12----0-10h11h12-------|
A|--------------------------------------------------------------------------|
E|--------------------------------------------------------------------------|

e|----------------------------------------------------------------------------|
B|----------------------------------------------------------------------------|
G|------------10------------10------------10------------10------------12-x-10-|
D|-0-10h11h12----0-10h11h12----0-10h11h12----0-10h11h12----0-10h11h12---------|
A|----------------------------------------------------------------------------|
E|----------------------------------------------------------------------------|

e|--------------------------------------------------------------------------|
B|--------------------------------------------------------------------------|
G|------------10------------10------------10------------10------------12-10-|
D|-0-10h11h12----0-10h11h12----0-10h11h12----0-10h11h12----0-10h11h12-------|
A|--------------------------------------------------------------------------|
E|--------------------------------------------------------------------------|

e|----------------------------------------------------------------|
B|----------------------------------------------------------------|
G|------------10------------10------------12-12-12-12-12-12-12-12-|
D|-0-10h11h12----0-10h11h12----0-10h11h12-------------------------|
A|----------------------------------------------------------------|
E|----------------------------------------------------------------|

e|--------------------------------------------------------------------------|
B|--------------------------------------------------------------------------|
G|------------10------------10------------10------------10------------12-10-|
D|-0-10h11h12----0-10h11h12----0-10h11h12----0-10h11h12----0-10h11h12-------|
A|--------------------------------------------------------------------------|
E|--------------------------------------------------------------------------|

e|----------------------------------------------------------------------------|
B|----------------------------------------------------------------------------|
G|------------10------------10------------10------------10------------12---10-|
D|-0-10h11h12----0-10h11h12----0-10h11h12----0-10h11h12----0-10h11h12----0----|
A|----------------------------------------------------------------------------|
E|----------------------------------------------------------------------------|

e|--------------------------------------------------------------------------|
B|--------------------------------------------------------------------------|
G|------------10------------10------------10------------10------------12-10-|
D|-0-10h11h12----0-10h11h12----0-10h11h12----0-10h11h12----0-10h11h12-------|
A|--------------------------------------------------------------------------|
E|--------------------------------------------------------------------------|

e|----------------------------------------------------------------|
B|----------------------------------------------------------------|
G|------------10------------10------------12-12-12-12-12-12-12-12-|
D|-0-10h11h12----0-10h11h12----0-10h11h12-------------------------|
A|----------------------------------------------------------------|
E|----------------------------------------------------------------|

e|-----------------------------------------------------------------------------------------|
B|-----------------------------------------------------------------------------------------|
G|-----------------------------------------------------------------------------------------|
D|-----------------------------------------------------------------------------------------|
A|-5-0-0-0-7-0-0-0-10-0-0-0-12-0-0-0-14-0-17-0-5-0-0-0-7-0-0-0-10-0-0-0-12-0-0-0-14-0-17-0-|
E|-----------------------------------------------------------------------------------------|

e|-------------------------------------------------------------------------------------|
B|-------------------------------------------------------------------------------------|
G|-------------------------------------------------------------------------------------|
D|---------------------------------------------------------------------------15---17---|
A|-5-0-0-0-7-0-0-0-10-0-0-0-12-0-0-0-14-0-17-0-12p0-12p0-15p0-15p0-17p0-17p0----0----0-|
E|-------------------------------------------------------------------------------------|
 
Thanks for reading this tab! Remember to rate and comment and if you have any 
suggestions feel free to add 'em. I'll make sure to discuss them and improve 
the tab whenever possible.

************************************

| x  Dead note
| h  Hammer-on
| p  Pull-off
| b  Bend
| /  Slide up
| \  Slide down 

************************************
Suggest correction
Give kudos to tab author, rate the tab!
1 2 3 4 5
comments
print report bad tab
guest
You may want to rate the tab now too:
select rating
Wanna post a correction for this tab? Suggest correction