Oops, an error
Loading. Please wait.

Negro Spiritual Tab

49 views 3 this week
no commentswrite comment
1 2 3 4 5
3 more votes to show rating
add to favorites
launch autoscroll
font size
0
reset
how to read this tab
guitar tuner
Autoscroll
slow
fast
+/-
esc
set tempo
stop
Help us to improve Ultimate-Guitar.com Take our survey!
×
About this tab version
The only version of this song (and the most accurate if you wanna be real here). I'll constantly be editing to make the tab look as professional as possible so please suggest edits such as notes/bars being a string off. Thanks. Was this info helpful? Yes No
-------------------------------------------------------------------------------
                       Negro Spiritual - Strawberry Girls
-------------------------------------------------------------------------------
Tabbed by: Micah Hobson
E-mail: shadowbreakmusic@gmail.com

[Intro] Repeat x2
e|-------------------------------------------------------------------------------|
B|-------------------------------------------------------------------------------|
G|-------------------------------------------------------------------------------|
D|-------------------------------------------------------------------------------|
A|-------------------------------------------------------------------------------|
E|-5-----5-----5---5---5-----5-----5-0-3s-5-----5-----5---5---5-----5-----5-0-3s-|

Repeat x2
e|---x-x---x-x---x---x---x-x---x-x----------x-x---x-x---x---x---x-x---x-x--------|
B|---x-x---x-x---x---x---x-x---x-x----------x-x---x-x---x---x---x-x---x-x--------|
G|---x-x---x-x---x---x---x-x---x-x----------x-x---x-x---x---x---x-x---x-x--------|
D|---x-x---x-x---x---x---x-x---x-x----------x-x---x-x---x---x---x-x---x-x--------|
A|---x-x---x-x---x---x---x-x---x-x----------x-x---x-x---x---x---x-x---x-x--------|
E|-5-x-x-5-x-x-5-x-5-x-5-x-x-5-x-x-5-0-3s-5-x-x-5-x-x-5-x-5-x-5-x-x-5-x-x-5-0-3s-|


[Riff 1] Repeat x2
e|-----------------------------------------------------------------------|
B|-----------------------------------------------------------------------|
G|-----------------------------------------------------------------------|
D|-----------------------------5-----------------------------------------|
A|---------------------3--5--6-----------------------3h5p3-------3h5p3---|
E|-3h5-5-5-3h5-5-5-3h5-----------3h5-5-5-3h5-5-5-3h5-------5h3h5-------5-|

e|-----------------------------------------------------------------------|
B|-----------------------------------------------------------------------|
G|-----------------------------------------------------------------------|
D|-----------------------------5-----------------------------------------|
A|---------------------3--5--6-------------------------------------------|
E|-3h5-5-5-3h5-5-5-3h5-----------3h5-5-5-3h5-5-5-4/16-4/16---------------|

[Riff 1.5] Repeat x2
e|---------------------------------------------------------------------------|
B|---------------------------------------------------------------------------|
G|---------------------------------------------------------------------------|
D|-------5/7-7------------------5/7-7----------------------------------------|
A|---------------6------6---------------6------6-----------------------------|
E|-3/5-5------------6-3---3/5-5------------6-3-------------------------------|

[Riff 2 intro] Repeat x2
e|-------------------------------------------------------|
B|-------------------------------------------------------|
G|-13p0-12p0-10p0-8p0-7p0-5p0-13p0-12p0-10p0-8p0-7p0-5p0-|
D|-------------------------------------------------------|
A|-------------------------------------------------------|
E|-------------------------------------------------------|

[Riff 2] Repeat x4
e|------------------------------------------------------------------------------------------------------|
B|------------------------------------------------------------------------------------------------------|
G|-13p0-0-12p0-0-10p0-0-8p0-7p0-5-0s-13p0-0-12p0-0-10p0-0-8p0-7p0-5-0-0---------------------------------|
D|------------------------------------------------------------------------------------------------------|
A|------------------------------------------------------------------------------------------------------|
E|------------------------------------------------------------------------------------------------------|
(Don't play vvv 4th time)
e|------------------------------------------------------------------------------------------------------|
B|------------------------------------------------------------------------------------------------------|
G|------------------------------------------------------------------------------------------------------|
D|-12-t17p12-t17p12-t17p12-t17p14-t17p14-t17p14-t17p14-t17p12-t17p12-t17p12-t17p14-t17p14-t17p14-t17p14-|
A|------------------------------------------------------------------------------------------------------|
E|------------------------------------------------------------------------------------------------------|

[Riff 3] Repeat x3
e|-----------------------------------------------------------------------------|
B|-----------------------------------------------------------------------------|
G|-----12--10-10h12p10------10-------------12--10-10h12p10-----10--------------|
D|----------------------12------12--10----------------------12------12--10-----|
A|-10-----------------------------------10----------------------------------10-|
E|-----------------------------------------------------------------------------|

e|-------------------------------------|
B|----------------------------11-11----|
G|-----12--10-10h12p10-----------------|
D|----------------------12-12-------12-|
A|-10----------------------------------|
E|-------------------------------------|

Repeat x3
e|------------------------------------------------------------------------------------------------|
B|------------------------------------------------------------------------------------------------|
G|-------12-12-10-10h12p10----------10-10--------------12-12-10-10h12p10----------10-10-----------|
D|------------------------h12-12-12-------12--10------------------------h12-12-12-------12--10----|
A|-10-10------------------------------------------10-10----------------------------------------10-|
E|------------------------------------------------------------------------------------------------|

[Riff 3] Repeat x3
e|-----------------------------------------------------------------------------|-----------------|
B|-----------------------------------------------------------------------------|-------13-13-----|
G|-----14--12-12h14p12------14-------------14--12-12h14p12-----12--------------|-----------------|
D|----------------------14------14--12----------------------14------14--12-----|-14-14--------14-|
A|-12-----------------------------------12----------------------------------12-|-----------------|
E|-----------------------------------------------------------------------------|-----------------|

e|--------------------------------------|
B|----------------------------13-13-----|
G|-----14--12-12h14p12------------------|
D|----------------------14-14--------14-|
A|-12-----------------------------------|
E|--------------------------------------|

e|------------------------------------------------------------------------------------------------|
B|------------------------------------------------------------------------------------------------|
G|-------14-14-12-12h14p12----------12-12--------------14-14-12-12h14p12----------12-12-----------|
D|------------------------h14-14-14-------14--12------------------------h14-14-14-------14--12----|
A|-12-12------------------------------------------12-12----------------------------------------12-|
E|------------------------------------------------------------------------------------------------|

[Outro] Repeat x2
e|-----------------------------------------------------------------------|
B|-----------------------------------------------------------------------|
G|-----------------------------------------------------------------------|
D|-----------------------------5-----------------------------------------|
A|---------------------3--5--6-----------------------3h5p3-------3h5p3---|
E|-3h5-5-5-3h5-5-5-3h5-----------3h5-5-5-3h5-5-5-3h5-------5h3h5-------5-|

e|-----------------------------------------------------------------------|
B|-----------------------------------------------------------------------|
G|-----------------------------------------------------------------------|
D|-----------------------------5-----------------------------------------|
A|---------------------3--5--6-------------------------------------------|
E|-3h5-5-5-3h5-5-5-3h5-----------3h5-5-5-3h5-5-5-4/16-4/16---------------|

[Outro/Half Time] Repeat x2
e|---------------------------------------------------------------------------|
B|---------------------------------------------------------------------------|
G|---------------------------------------------------------------------------|
D|-------5/7-7------------------5/7-7----------------------------------------|
A|---------------6------6---------------6------6-----------------------------|
E|-3/5-5------------6-3---3/5-5------------6-3-------------------------------|

Thanks for reading this tab! Remember to rate and comment and if you have any 
suggestions feel free to add 'em. I'll make sure to discuss them and improve 
the tab whenever possible.

************************************

| x   Dead note
| g   Grace note
| (n) Ghost note
| h   Hammer-on
| p   Pull-off
| r   Release
| >   Accented note
| t   Tapping
| b   Bend
| br  Bend release
| pb  Pre-bend
| pbr Pre-bend release
| /   Slide up
| \   Slide down
| ~   Vibrato
| s   Slap
| P   Pop
| PM  Palm mute
| TR  Trill
| N   Tremolo

************************************
Suggest correction
Give kudos to tab author, rate the tab!
1 2 3 4 5
comments
print report bad tab
guest
You may want to rate the tab now too:
select rating
Wanna post a correction for this tab? Suggest correction