Oops, an error
Loading. Please wait.

Spanish Bay Bass Tab

10 views 3 this week
no commentswrite comment
1 2 3 4 5
3 more votes to show rating
add to favorites
launch autoscroll
font size
0
reset
guitar tuner
Autoscroll
slow
fast
+/-
esc
set tempo
stop
Help us to improve Ultimate-Guitar.com Take our survey!
×
Author
(0:13)

G|---------------------------------------------------------------------------|
D|---------------------------------------------------------------------------|
A|------------4-4--3--3--2---7-7---4--4--3--3--8--7--7--4--4--3--3--2---7--7-|
E|---12--12\-----------------------------------------------------------------|

G|----------------------------------------------------------------------------------|
D|----------------------------------------------------------------------------------|
A|--4--4--3--3---7--7--7-7----7-7-7-7-7-7-7-7-7-7-7-7-7-7--4--3--7-4--3--7--4--3----|
E|----------------------------------------------------------------------------------|


G|------------|
D|------------|
A|--7--4--3---|
E|------------|

(0:54)

G|---------------------------------------------------------------------------|
D|---------------------------------------------------------------0--2--------|
A|-7--7--7--7--7--7--7--7--7--7----4--4--4--4--3--3--3--3--0--2--------------|
E|---------------------------------------------------------------------------|


G|---------------------------------------------------------------------------|
D|---------------------------------------------------------------------------|
A|--7--7--7--7--7--7--7--7--7--7--0-0-0-0--3---------------------------------|
E|---------------------------------------------------------------------------|


G|---------------------------------------------------------------------------|
D|---------------------------------------------------------------0--2--------|
A|-7--7--7--7--7--7--7--7--7--7----4--4--4--4--3--3--3--3--0--2--------------|
E|---------------------------------------------------------------------------|
  

G|--------------------------------------------------|
D|--------------------------------------------------|
A|-7--7--7--7--7--7--7--7--7--7----10--9--7---------|
E|--------------------------------------------10--7-|

(1:13)

G|---------------------------------------------------------------------------|
D|---------------------------------------------------------------------------|
A|--77777777777777777777--4444444444--3333333333--77777777777777777777-------|
E|---------------------------------------------------------------------------|

G|---------------------------------------------------------------------------|
D|---------------------------------------------------------------------------|
A|----0000000000----------------77777777777777777777--4444444444--3333333333-|
E|-----------------1111111111------------------------------------------------|

G|---------------------------------------------------------------------------|
D|---------------------------------------------------------------------------|
A|-77777777777777777777----0000000000----------------------------------------|
E|----------------------------------------1111111111---------0---------------|

(1:43)

G|---------------------------------------------------------------------------|
D|---------------------------------------------------------------------------|
A|---------------------------------------------------------------------5\----|
E|-12\--0-0--0-0--0--2--3--3-3--3--3--5--0--0--0--0--0-2-3--3--3--3--3-------|

G|---------------------------------------------------------------------------|
D|---------------------------------------------------------------------------|
A|---------------------------------------------------------------------5-----|
E|----0-0--0-0--0--2--3--3-3--3--3--5--0--0--0--0--0-2-3--3--3--3--3---------|

(2:13)

G|---------------------------------------------------------------------------|
D|---------------------------------------------------------------------------|
A|--6--6--6--6---7--7--4--4--3--3--2--7-7\--4--4--3--3--8--7--7--4--4---3--3-|
E|---------------------------------------------------------------------------|


G|---------------------------------------------------------------------------|
D|-------------------------------------------------------------------0-------|
A|-2---7--7--4--4--3--3-----3--0--------7--5--7--3--0----------0--2----------|
E|--------------------------------0--0-----------------0--2--3---------------|

G|---------------------------------------------------------------------------|
D|---------------------------------------------------------------------------|
A|-3--0--0------7--5--7---3---0--------7--5--7------7--5--7---------7--5-7---|
E|---------0--0------------------0--0----------0--0-----------0--0-----------|

G|-------------------|
D|-------------------|
A|---------7--5--7\--|
E|--0--0-------------|

(2:55)

G|---------------------------------------------------------------------------|
D|------0--------------------0------------------0---------------0------------|
A|---3---------0----------3---------0---------3-------0-------3-------0------|
E|-0-------0------1---0---------0-----1----0------0------1--0-------0---1--0-|


************************************
 
| \   Slide down 

************************************
Suggest correction
Give kudos to tab author, rate the tab!
1 2 3 4 5
comments
print report bad tab
guest
You may want to rate the tab now too:
select rating
Wanna post a correction for this tab? Suggest correction