Oops, an error
Loading. Please wait.

Rock This Town bass

version 1
version 1

Whole song

Interactive

63,156 views 81 this week
4 commentsread comments
1 2 3 4 5
x 5
add to favorites
×
Save as Personal and add changes to this tab that will be seen only by you. Learn more ›
×
You can save this tab as Personal to edit and correct it or add notes. All changes will be seen only by you. Learn more »
launch autoscroll
font size
0
reset
guitar tuner
backing track
0:00
0:00
edit
Autoscroll
slow
fast
+/-
esc
set tempo
stop
Author
Difficulty
Edited shorter, Original at bottom


[Intro]

4 measure rest, 8 measures with bass, guitar, and drums
  W                W                W                W
G|R---------------|R---------------|R---------------|R---------------|
D|R---------------|R---------------|R---------------|R---------------|
A|R---------------|R---------------|R---------------|R---------------|
E|R---------------|R---------------|R---------------|R---------------|

  Q   E E Q   Q    E E Q   Q   Q    E E Q   E E E E  E E E E Q   Q
G|----------------|----------------|----------------|----------------|
D|----4-4-5---6---|7-7-6---5---4---|----4---5-5-6-6-|7-7-6-6-5---4---|
A|5---------------|----------------|5-5-------------|----------------|
E|----------------|----------------|----------------|----------------|

  Q   Q   Q   Q    E E Q   Q   E E  Q   Q   Q   Q    E E Q   Q   E E  
G|----------------|----------------|----------------|----------------|
D|----4---5---6---|7-7-6---5---4-4-|----4---5---6---|7-7-6---5---4-4-|
A|5---------------|----------------|5---------------|----------------|
E|----------------|----------------|----------------|----------------|


[Verse 1]

  Q   E E Q   E E  E E Q   Q   Q    Q   E E Q   E E  E E Q   Q   Q   
G|----------------|----------------|----------------|----------------|
D|----4-4-5---6-6-|7-7-6---5---4---|----4-4-5---6-6-|7-7-6---5---4---|
A|5---------------|----------------|5---------------|----------------|
E|----------------|----------------|----------------|----------------|
  Q   E E Q   E E  E E Q   Q   Q    Q   Q   Q   Q    Q   Q   Q   Q     
G|----------------|----------------|----------------|----------------|
D|----4-4-5---6-6-|7-7-6---5---4---|----4-----------|----------------|
A|5---------------|----------------|--------7---4---|----4---7---6---|
E|----------------|----------------|5---------------|5---------------|
  Q   Q   Q   Q    Q   Q   E E Q    Q   Q   Q   Q    Q   Q   Q   Q   
G|----------------|----------------|----------------|----------------|
D|----------------|----2---3-3-4---|5---3-----------|----------------|
A|5---3---2---3---|5---------------|--------5---2---|----5---4---2---|
E|----------------|----------------|----------------|0---------------|
  Q   Q   Q   Q    Q   Q   Q   Q   
G|----------------|----------------|
D|----4---5---7---|--------5---4---|
A|5---------------|----------------|
E|----------------|5---5-----------|


[Bridge 1]

  Q   Q   Q   Q    Q   Q   Q   Q    Q   Q   Q   Q    Q   Q   Q   Q    
G|----------------|----------------|----------------|----------------|
D|----4---5---6---|7---6---5---4---|----4---5---6---|7---6---5---4---|
A|5---------------|----------------|5---------------|----------------|
E|----------------|----------------|----------------|----------------|(x2)


[Verse 2]

  Q   Q   Q   Q    Q   Q   Q   Q    Q   Q   Q   Q    Q   Q   Q   Q    
G|----------------|----------------|----------------|----------------|
D|----4---5---6---|7---6---5---4---|----4---5---6---|7---6---5---4---|
A|5---------------|----------------|5---------------|----------------|
E|----------------|----------------|----------------|----------------|(x2)
  Q   Q   Q   Q    Q   Q   Q   Q    Q   Q   Q   Q    Q   E E E E Q   
G|----------------|----------------|----------------|----------------|
D|7---4-----------|----------------|----------------|----------------|
A|--------7---4---|----4---7---6---|5---3---2-------|5---3-3-2-2-----|
E|----------------|5---------------|------------5---|------------5---|
  Q   Q   Q   Q    Q   Q   Q   Q    Q   Q   Q   Q    Q   Q   Q   Q   
G|----------------|----R-----------|----------------|----------------|
D|------------2---|----R-----------|----4---5---6---|----7---5---4---|
A|----2---5-------|----R---2---4---|5---------------|----------------|
E|3---------------|0---R-----------|----------------|5---------------|


[Chorus 1]

  Q   Q   Q   Q    Q   Q   Q   Q    Q   Q   Q   Q    Q   Q   Q   Q    
G|----------------|----------------|----------------|----------------|
D|----4---5---6---|7---6---5---4---|----4---5---6---|7---6---5---4---|
A|5---------------|----------------|5---------------|----------------|
E|----------------|----------------|----------------|----------------|
  Q   Q   Q   Q    Q   Q   Q   Q    Q   Q   Q   Q    Q   Q   Q   Q   
G|----------------|----------------|----------------|----------------|
D|----4---5---6---|7---6---5---4---|----4-----------|----------------|
A|5---------------|----------------|--------7---4---|----4---7---6---|
E|----------------|----------------|5---------------|5---------------|
  E E E E Q   Q    E E E E E E Q    SSE Q   H        Q   Q   Q   Q    
G|----------------|----------------|-R--------------|----------------|
D|----------------|----2-2-3-3-4---|-R--------------|----------------|
A|5-5-3-3-2-------|5-5-------------|-R--------------|7---5---3---2---|
E|------------5---|----------------|3R--------------|----------------|
  Q   Q   Q   Q    Q   Q   Q   Q    Q   Q   Q   Q    Q   Q   Q   Q    
G|----------------|----------------|----------------|----------------|
D|----4---5---6---|7---6---5---4---|----4---5---6---|7---6---5---4---|
A|5---------------|----------------|5---------------|----------------|
E|----------------|----------------|----------------|----------------|


[Solo 1]

  Q   E E Q   Q    Q   Q   Q   Q    Q   E E Q   Q    Q   Q   Q   Q   
G|----------------|----------------|----------------|----------------|
D|----4-4-5---6---|7---6---5---4---|----4-4-5---6---|7---6---5---4---|
A|5---------------|----------------|5---------------|----------------|
E|----------------|----------------|----------------|----------------|
  Q   Q   Q   Q    E E Q   Q   Q    Q   Q   E E Q    E E Q   E E Q   
G|----------------|----------------|----------------|----------------|
D|----4---5---6---|7-7-6---5---4---|----------------|----------------|
A|5---------------|----------------|---4----7-7-4---|----2---3-3-4---|
E|----------------|----------------|5---------------|5-5-------------|
  Q   E E Q   Q    Q   E E Q   Q    Q   Q   Q   Q    E E Q   Q   Q   
G|----------------|----------------|----------------|----------------|
D|----------------|----------------|----------------|----------------|
A|5---3-3-2-------|5---3-3-2-------|----2---3---5---|7-7-5---3---2---|
E|------------5---|------------5---|3---------------|----------------|
  Q   E E Q   Q    Q   Q   E E E E 
G|----------------|----------------|
D|----------------|----------------|
A|5---3-3-2-------|----2---3-3-4-4-|
E|------------6---|5---------------|


[Bridge 2]

  Q   Q   Q   Q    Q   Q   Q   Q    Q   Q   Q   Q    Q   Q   Q   Q    
G|----------------|----------------|----------------|----------------|
D|----4---5---6---|7---6---5---4---|----4---5---6---|7---6---5---4---|
A|5---------------|----------------|5---------------|----------------|
E|----------------|----------------|----------------|----------------|(x2)


[Verse 3]

  Q   E E Q   Q    Q   Q   Q   E E  Q   Q   Q   Q    Q   Q   Q   E E  
G|----------------|----------------|----------------|----------------|
D|----4-4-5---6---|7---6---5---4-4-|----4---5---6---|7---6---5---4-4-|
A|5---------------|----------------|5---------------|----------------|
E|----------------|----------------|----------------|----------------|
  Q   Q   Q   Q    Q   Q   Q   E E  E E Q   Q   Q    Q   Q   Q   E E  
G|----------------|----------------|------------4---|5---4-----------|
D|----4---5---6---|7---6---5---4-4-|----4---7-------|--------7---4---|
A|5---------------|----------------|5-5-------------|--------------0-|
E|----------------|----------------|----------------|----------------|
  SSE Q   E E Q    SSE Q   E E Q    SSE Q   H        Q   Q   Q   Q    
G|-R--------------|-R--------------|-R--------------|----------------|
D|-R--------------|-R--------------|-R--------------|7---6---5---4---|
A|0R--------7-4---|0R--------7-4---|0R--------------|----------------|
E|-R--------------|-R--------------|-R--------------|----------------|
  Q   E E Q   Q    Q   E E Q   Q    Q   E E Q   Q    Q   Q   Q   Q   
G|----------------|----------------|----------------|----------------|
D|----------------|----------------|--------5---3---|2---------------|
E|5---3-3-2-------|5---3-3-2-------|------5---------|----5---3---2---|
A|------------5---|------------5---|3---3-----------|----------------|


[Chorus 2]

  Q   Q   Q   Q    Q   Q   Q   Q    Q   Q   Q   Q    Q   Q   Q   Q    
G|----------------|----------------|----------------|----------------|
D|----4---5---6---|7---6---5---4---|----4---5---6---|7---6---5---4---|
A|5---------------|----------------|5---------------|----------------|
E|----------------|----------------|----------------|----------------|
  Q   Q   Q   Q    Q   Q   Q   Q    Q   Q   Q   Q    Q   Q   Q   Q   
G|----------------|----------------|----------------|----------------|
D|----4---5---6---|7---6---5---4---|----4-----------|----------------|
A|5---------------|----------------|--------7---4---|----4---7---6---|
E|----------------|----------------|5---------------|5---------------|
  E E E E Q   Q    E E E E E E Q    SSE Q   H        Q   Q   Q   Q    
G|----------------|----------------|-R--------------|----------------|
D|----------------|----2-2-3-3-4---|-R--------------|----------------|
A|5-5-3-3-2-------|5-5-------------|-R--------------|7---5---3---2---|
E|------------5---|----------------|3R--------------|----------------|
  Q   Q   Q   Q    Q   Q   Q   Q    Q   Q   Q   Q    Q   Q   Q   Q    
G|----------------|----------------|----------------|----------------|
D|----4---5---6---|7---6---5---4---|----4---5---6---|7---6---5---4---|
A|5---------------|----------------|5---------------|----------------|
E|----------------|----------------|----------------|----------------|


[Solo 2]

  Q   E E Q   Q    Q   Q   Q   Q    Q   E E Q   Q    Q   Q   Q   Q   
G|----------------|----------------|----------------|----------------|
D|----4-4-5---6---|7---6---5---4---|----4-4-5---6---|7---6---5---4---|
A|5---------------|----------------|5---------------|----------------|
E|----------------|----------------|----------------|----------------|
  Q   Q   Q   Q    E E Q   Q   Q    Q   Q   E E Q    E E Q   E E Q   
G|----------------|----------------|----------------|----------------|
D|----4---5---6---|7-7-6---5---4---|----------------|----------------|
A|5---------------|----------------|---4----7-7-4---|----2---3-3-4---|
E|----------------|----------------|5---------------|5-5-------------|
  Q   E E Q   Q    Q   E E Q   Q    Q   Q   Q   Q    E E Q   Q   Q   
G|----------------|----------------|----------------|----------------|
D|----------------|----------------|----------------|----------------|
A|5---3-3-2-------|5---3-3-2-------|----2---3---5---|7-7-5---3---2---|
E|------------5---|------------5---|3---------------|----------------|
  Q   E E Q   Q    Q   Q   E E E E 
G|----------------|----------------|
D|----------------|----------------|
A|5---3-3-2-------|----2---3-3-4-4-|
E|------------6---|5---------------|


[Bridge 3]

  Q   Q   Q   Q    Q   Q   Q   Q    Q   Q   Q   Q    Q   Q   Q   Q    
G|----------------|----------------|----------------|----------------|
D|----4---5---6---|7---6---5---4---|----4---5---6---|7---6---5---4---|
A|5---------------|----------------|5---------------|----------------|
E|----------------|----------------|----------------|----------------|(x2)


[Chorus 3]

  Q   Q   Q   Q    Q   Q   Q   Q    Q   Q   Q   Q    Q   Q   Q   Q    
G|----------------|----------------|----------------|----------------|
D|----4---5---6---|7---6---5---4---|----4---5---6---|7---6---5---4---|
A|5---------------|----------------|5---------------|----------------|
E|----------------|----------------|----------------|----------------|
  Q   Q   Q   Q    Q   Q   Q   Q    Q   Q   Q   Q    Q   Q   Q   Q   
G|----------------|----------------|----------------|----------------|
D|----4---5---6---|7---6---5---4---|----4-----------|----------------|
A|5---------------|----------------|--------7---4---|----4---7---6---|
E|----------------|----------------|5---------------|5---------------|
  E E E E Q   Q    E E E E E E Q    SSE Q   H        Q   Q   Q   Q    
G|----------------|----------------|-R--------------|----------------|
D|----------------|----2-2-3-3-4---|-R--------------|----------------|
A|5-5-3-3-2-------|5-5-------------|-R--------------|7---5---3---2---|
E|------------5---|----------------|3R--------------|----------------|
  Q   Q   Q   Q    Q   Q   Q   Q    Q   Q   Q   Q    Q   Q   Q   Q    
G|----------------|----------------|----------------|----------------|
D|----4---5---6---|7---6---5---4---|----4---5---6---|7---6---5---4---|
A|5---------------|----------------|5---------------|----------------|
E|----------------|----------------|----------------|----------------|


[Ending]

  Q   Q   Q   Q    Q   Q   Q   Q    Q   Q   Q   Q    Q   Q   Q   Q    
G|----------------|----------------|----------------|----------------|
D|----4---5---6---|7---6---5---4---|----4---5---6---|7---6---5---4---|
A|5---------------|----------------|5---------------|----------------|
E|----------------|----------------|----------------|----------------|
  Q   Q   Q   Q    Q   Q   Q   Q    Q   Q   Q   Q    Q   E S Q   Q    
G|----------------|----------------|----------------|----------------|
D|----4---5---6---|7---6---5---4---|----4---5---6---|7---5-4R--------|
A|5---------------|----------------|5---------------|------------5---|
E|----------------|----------------|----------------|----------------|


[Bass]

     W                   W                 
G|-------------------|-------------------|
D|-------------------|-------------------|
A|-------------------|-------------------|
E|-------------------|-------------------|


    W                   W                 
G|-------------------|-------------------|
D|-------------------|-------------------|
A|-------------------|-------------------|
E|-------------------|-------------------|


    Q    E  E  Q    Q       E  E  Q    Q    Q     
G|-----------------------|-----------------------|
D|-------4--4--5----6----|--7--7--6----5----4----|
A|--5--------------------|-----------------------|
E|-----------------------|-----------------------|


    E  E  Q    E  E  E  E     E  E  E  E  Q    Q     
G|-------------------------|------------------------|
D|--------4----5--5--6--6--|--7--7--6--6--5----4----|
A|--5--5-------------------|------------------------|
E|-------------------------|------------------------|


    Q    Q    Q    Q       E  E  Q    Q    E  E   
G|----------------------|------------------------|
D|-------4----5----6----|--7--7--6----5----4--4--|
A|--5-------------------|------------------------|
E|----------------------|------------------------|


    Q    Q    Q    Q       E  E  Q    Q    E  E   
G|----------------------|------------------------|
D|-------4----5----6----|--7--7--6----5----4--4--|
A|--5-------------------|------------------------|
E|----------------------|------------------------|


    Q    E  E  Q    E  E     E  E  Q    Q    Q     
G|------------------------|-----------------------|
D|-------4--4--5----6--6--|--7--7--6----5----4----|
A|--5---------------------|-----------------------|
E|------------------------|-----------------------|


    Q    E  E  Q    Q       E  E  Q    Q    Q     
G|-----------------------|-----------------------|
D|-------4--4--5----6----|--7--7--6----5----4----|
A|--5--------------------|-----------------------|
E|-----------------------|-----------------------|


    Q    E  E  Q    Q       E  E  Q    Q    Q     
G|-----------------------|-----------------------|
D|-------4--4--5----6----|--7--7--6----5----4----|
A|--5--------------------|-----------------------|
E|-----------------------|-----------------------|


    Q    Q    Q    Q       Q    Q    Q    Q     
G|----------------------|----------------------|
D|-------4--------------|----------------------|
A|------------7----4----|-------4----7----6----|
E|--5-------------------|--5-------------------|


    Q    Q    Q    Q       Q    Q    E  E  Q     
G|----------------------|-----------------------|
D|----------------------|-------2----3--3--4----|
A|--5----3----2----3----|--5--------------------|
E|----------------------|-----------------------|


    Q    Q    Q    Q       Q    Q    Q    Q     
G|----------------------|----------------------|
D|--5----3--------------|----------------------|
A|------------5----2----|-------5----4----2----|
E|----------------------|--0-------------------|


    Q    Q    Q    Q       Q    Q    Q    Q     
G|----------------------|----------------------|
D|-------4----5----7----|------------5----4----|
A|--5-------------------|----------------------|
E|----------------------|--5----5--------------|


    Q    Q    Q    Q       Q    Q    Q    Q     
G|----------------------|----------------------|
D|-------4----5----6----|--7----6----5----4----|
A|--5-------------------|----------------------|
E|----------------------|----------------------|


    Q    Q    Q    Q       Q    Q    Q    Q     
G|----------------------|----------------------|
D|-------4----5----6----|--7----6----5----4----|
A|--5-------------------|----------------------|
E|----------------------|----------------------|


    Q    Q    Q    Q       Q    Q    Q    Q     
G|----------------------|----------------------|
D|-------4----5----6----|--7----6----5----4----|
A|--5-------------------|----------------------|
E|----------------------|----------------------|


    Q    Q    Q    Q       Q    Q    Q    Q     
G|----------------------|----------------------|
D|-------4----5----6----|--7----6----5----4----|
A|--5-------------------|----------------------|
E|----------------------|----------------------|


    Q    Q    Q    Q       Q    Q    Q    Q     
G|----------------------|----------------------|
D|-------4----5----6----|--7----6----5----4----|
A|--5-------------------|----------------------|
E|----------------------|----------------------|


    Q    Q    Q    Q       Q    Q    Q    Q     
G|----------------------|----------------------|
D|-------4----5----6----|--7----6----5----4----|
A|--5-------------------|----------------------|
E|----------------------|----------------------|


    Q    Q    Q    Q       Q    Q    Q    Q     
G|----------------------|----------------------|
D|-------4----5----6----|--7----6----5----4----|
A|--5-------------------|----------------------|
E|----------------------|----------------------|


    Q    Q    Q    Q       Q    Q    Q    Q     
G|----------------------|----------------------|
D|--7----4--------------|----------------------|
A|------------7----4----|-------4----7----6----|
E|----------------------|--5-------------------|


    Q    Q    Q    Q       Q    E  E  E  E  Q     
G|----------------------|------------------------|
D|----------------------|------------------------|
A|--5----3----2---------|--5----3--3--2--2-------|
E|-----------------5----|-------------------5----|


    Q    Q    Q    Q       Q    Q    Q    Q     
G|----------------------|----------------------|
D|-----------------2----|----------------------|
A|-------2----5---------|------------2----4----|
E|--3-------------------|--0-------------------|


    Q    Q    Q    Q       Q    Q    Q    Q     
G|----------------------|----------------------|
D|-------4----5----6----|-------7----5----4----|
A|--5-------------------|----------------------|
E|----------------------|--5-------------------|


    Q    Q    Q    Q       Q    Q    Q    Q     
G|----------------------|----------------------|
D|-------4----5----6----|--7----6----5----4----|
A|--5-------------------|----------------------|
E|----------------------|----------------------|


    Q    Q    Q    Q       Q    Q    Q    Q     
G|----------------------|----------------------|
D|-------4----5----6----|--7----6----5----4----|
A|--5-------------------|----------------------|
E|----------------------|----------------------|


    Q    Q    Q    Q       Q    Q    Q    Q     
G|----------------------|----------------------|
D|-------4----5----6----|--7----6----5----4----|
A|--5-------------------|----------------------|
E|----------------------|----------------------|


    Q    Q    Q    Q       Q    Q    Q    Q     
G|----------------------|----------------------|
D|-------4----5----6----|--7----6----5----5----|
A|--5-------------------|----------------------|
E|----------------------|----------------------|


    Q    Q    Q    Q       Q    Q    Q    Q     
G|----------------------|----------------------|
D|-------4--------------|----------------------|
A|------------7----4----|-------4----7----6----|
E|--5-------------------|--5-------------------|


    E  E  E  E  Q    Q       E  E  E  E  E  E  Q     
G|------------------------|-------------------------|
D|------------------------|--------2--2--3--3--4----|
A|--5--5--3--3--2---------|--5--5-------------------|
E|-------------------5----|-------------------------|


    Q    Q    H           Q    Q    Q    Q     
G|---------------------|----------------------|
D|---------------------|----------------------|
A|---------------------|--7----5----3----2----|
E|--3------------------|----------------------|


    Q    Q    Q    Q       Q    Q    Q    Q     
G|----------------------|----------------------|
D|-------4----5----6----|--7----6----5----4----|
A|--5-------------------|----------------------|
E|----------------------|----------------------|


    1.                                           
    Q    E  E  Q    Q       Q    Q    Q    Q     
G|-----------------------|----------------------|
D|-------4--4--5----6----|--7----6----5----4----|
A|--5--------------------|----------------------|
E|-----------------------|----------------------|


    Q    E  E  Q    Q       Q    Q    Q    Q     
G|-----------------------|----------------------|
D|-------4--4--5----6----|--7----6----5----4----|
A|--5--------------------|----------------------|
E|-----------------------|----------------------|


    Q    Q    Q    Q       E  E  Q    Q    Q     
G|----------------------|-----------------------|
D|-------4----5----6----|--7--7--6----5----4----|
A|--5-------------------|-----------------------|
E|----------------------|-----------------------|


    Q    E  E  Q    Q       Q    Q    Q    Q     
G|-----------------------|----------------------|
D|-------4--4--5----6----|--7----6----5----4----|
A|--5--------------------|----------------------|
E|-----------------------|----------------------|


    Q    Q    E  E  Q       E  E  Q    E  E  Q     
G|-----------------------|------------------------|
D|-----------------------|------------------------|
A|-------4----7--7--4----|--------2----3--3--4----|
E|--5--------------------|--5--5------------------|


    Q    E  E  Q    Q       Q    E  E  Q    Q     
G|-----------------------|-----------------------|
D|-----------------------|-----------------------|
A|--5----3--3--2---------|--5----3--3--2---------|
E|------------------5----|------------------5----|


    Q    Q    Q    Q       E  E  Q    Q    Q     
G|----------------------|-----------------------|
D|----------------------|-----------------------|
A|-------2----3----5----|--7--7--5----3----2----|
E|--3-------------------|-----------------------|


    Q    E  E  Q    Q       Q    Q    E  E  E  E   
G|-----------------------|------------------------|
D|-----------------------|------------------------|
A|--5----3--3--2---------|-------2----3--3--4--4--|
E|------------------6----|--5---------------------|


    Q    Q    Q    Q       Q    Q    Q    Q     
G|----------------------|----------------------|
D|-------4----5----6----|--7----6----5----4----|
A|--5-------------------|----------------------|
E|----------------------|----------------------|


    Q    Q    Q    Q       Q    Q    Q    Q     
G|----------------------|----------------------|
D|-------4----5----6----|--7----6----5----4----|
A|--5-------------------|----------------------|
E|----------------------|----------------------|


    Q    Q    Q    Q       Q    Q    Q    Q     
G|----------------------|----------------------|
D|-------4----5----6----|--7----6----5----4----|
A|--5-------------------|----------------------|
E|----------------------|----------------------|


    Q    Q    Q    Q       Q    Q    Q    Q     
G|----------------------|----------------------|
D|-------4----5----6----|--7----6----5----4----|
A|--5-------------------|----------------------|
E|----------------------|----------------------|


    Q    Q    Q    Q       Q    Q    Q    Q     
G|----------------------|----------------------|
D|-------4----5----6----|--7----6----5----4----|
A|--5-------------------|----------------------|
E|----------------------|----------------------|


    Q    Q    Q    Q       Q    Q    Q    Q     
G|----------------------|----------------------|
D|-------4----5----6----|--7----6----5----4----|
A|--5-------------------|----------------------|
E|----------------------|----------------------|


    Q    Q    Q    Q       Q    Q    Q    Q     
G|----------------------|----------------------|
D|-------4----5----6----|--7----6----5----4----|
A|--5-------------------|----------------------|
E|----------------------|----------------------|


    Q    Q    Q    Q       Q    Q    Q    Q     
G|----------------------|----------------------|
D|--7----4--------------|----------------------|
A|------------7----4----|-------4----7----6----|
E|----------------------|--5-------------------|


    Q    Q    Q    Q       Q    E  E  E  E  Q     
G|----------------------|------------------------|
D|----------------------|------------------------|
A|--5----3----2---------|--5----3--3--2--2-------|
E|-----------------5----|-------------------5----|


    Q    Q    Q    Q       Q    Q    Q    Q     
G|----------------------|----------------------|
D|-----------------2----|----------------------|
A|-------2----5---------|------------2----4----|
E|--3-------------------|--0-------------------|


    Q    Q    Q    Q       Q    Q    Q    Q     
G|----------------------|----------------------|
D|-------4----5----6----|-------7----5----4----|
A|--5-------------------|----------------------|
E|----------------------|--5-------------------|


    Q    Q    Q    Q       Q    Q    Q    Q     
G|----------------------|----------------------|
D|-------4----5----6----|--7----6----5----4----|
A|--5-------------------|----------------------|
E|----------------------|----------------------|


    Q    Q    Q    Q       Q    Q    Q    Q     
G|----------------------|----------------------|
D|-------4----5----6----|--7----6----5----4----|
A|--5-------------------|----------------------|
E|----------------------|----------------------|


    Q    Q    Q    Q       Q    Q    Q    Q     
G|----------------------|----------------------|
D|-------4----5----6----|--7----6----5----4----|
A|--5-------------------|----------------------|
E|----------------------|----------------------|


    Q    Q    Q    Q       Q    Q    Q    Q     
G|----------------------|----------------------|
D|-------4----5----6----|--7----6----5----5----|
A|--5-------------------|----------------------|
E|----------------------|----------------------|


    Q    Q    Q    Q       Q    Q    Q    Q     
G|----------------------|----------------------|
D|-------4--------------|----------------------|
A|------------7----4----|-------4----7----6----|
E|--5-------------------|--5-------------------|


    E  E  E  E  Q    Q       E  E  E  E  E  E  Q     
G|------------------------|-------------------------|
D|------------------------|--------2--2--3--3--4----|
A|--5--5--3--3--2---------|--5--5-------------------|
E|-------------------5----|-------------------------|


    Q    Q    H           Q    Q    Q    Q     
G|---------------------|----------------------|
D|---------------------|----------------------|
A|---------------------|--7----5----3----2----|
E|--3------------------|----------------------|


    Q    Q    Q    Q       Q    Q    Q    Q     
G|----------------------|----------------------|
D|-------4----5----6----|--7----6----5----4----|
A|--5-------------------|----------------------|
E|----------------------|----------------------|


    1.                                            
    Q    E  E  Q    Q       Q    Q    Q    E  E   
G|-----------------------|-----------------------|
D|-------4--4--5----6----|--7----6----5----4--4--|
A|--5--------------------|-----------------------|
E|-----------------------|-----------------------|


    Q    Q    Q    Q       Q    Q    Q    E  E   
G|----------------------|-----------------------|
D|-------4----5----6----|--7----6----5----4--4--|
A|--5-------------------|-----------------------|
E|----------------------|-----------------------|


    Q    Q    Q    Q       Q    Q    Q    E  E   
G|----------------------|-----------------------|
D|-------4----5----6----|--7----6----5----4--4--|
A|--5-------------------|-----------------------|
E|----------------------|-----------------------|


    E  E  Q    Q    Q       Q    Q    Q    E  E   
G|------------------4----|--5----4---------------|
D|--------4----7---------|------------7----4-----|
A|--5--5-----------------|--------------------0--|
E|-----------------------|-----------------------|


    E  E  Q    Q    Q       Q    Q    Q    Q     
G|-----------------------|----------------------|
D|-----------------------|----------------------|
A|--L--0--0----7----4----|-------4----7----6----|
E|-----------------------|--5-------------------|


    Q    E  E  Q    Q       Q    E  E  Q    Q     
G|-----------------------|-----------------------|
D|-----------------------|-----------------------|
A|--5----3--3--2---------|--5----3--3--2---------|
E|------------------5----|------------------5----|


    Q    E  E  Q    Q       Q    Q    Q    Q     
G|-----------------------|----------------------|
D|-------------5----3----|--2-------------------|
A|----------5------------|-------5----3----2----|
E|--3----3---------------|----------------------|


    Q    E  E  E  E  Q       Q    Q    Q    Q     
G|------------------------|----------------------|
D|-------4--4--5--5--6----|--7----6----5----4----|
A|--5---------------------|----------------------|
E|------------------------|----------------------|


    Q    Q    Q    Q       Q    Q    Q    Q     
G|----------------------|----------------------|
D|-------4----5----6----|--7----6----5----4----|
A|--5-------------------|----------------------|
E|----------------------|----------------------|


    Q    Q    Q    Q       Q    Q    Q    Q     
G|----------------------|----------------------|
D|-------4----5----6----|--7----6----5----4----|
A|--5-------------------|----------------------|
E|----------------------|----------------------|


    Q    Q    Q    Q       Q    Q    Q    Q     
G|----------------------|----------------------|
D|-------4----5----6----|--7----6----5----4----|
A|--5-------------------|----------------------|
E|----------------------|----------------------|


    Q    Q    Q    Q       Q    Q    Q    Q     
G|----------------------|----------------------|
D|-------4----5----6----|--7----6----5----4----|
A|--5-------------------|----------------------|
E|----------------------|----------------------|


    Q    Q    Q    Q       Q    Q    Q    Q     
G|----------------------|----------------------|
D|-------4----5----6----|--7----6----5----4----|
A|--5-------------------|----------------------|
E|----------------------|----------------------|


    Q    Q    Q    Q       Q    Q    Q    Q     
G|----------------------|----------------------|
D|-------4----5----6----|--7----6----5----4----|
A|--5-------------------|----------------------|
E|----------------------|----------------------|


    Q    Q    Q    Q       Q    Q    Q    Q     
G|----------------------|----------------------|
D|-------4----5----6----|--7----6----5----5----|
A|--5-------------------|----------------------|
E|----------------------|----------------------|


    Q    Q    Q    Q       Q    Q    Q    Q     
G|----------------------|----------------------|
D|-------4--------------|----------------------|
A|------------7----4----|-------4----7----6----|
E|--5-------------------|--5-------------------|


    E  E  E  E  Q    Q       E  E  E  E  E  E  Q     
G|------------------------|-------------------------|
D|------------------------|--------2--2--3--3--4----|
A|--5--5--3--3--2---------|--5--5-------------------|
E|-------------------5----|-------------------------|


    Q    Q    H           Q    Q    Q    Q     
G|---------------------|----------------------|
D|---------------------|----------------------|
A|---------------------|--7----5----3----2----|
E|--3------------------|----------------------|


    Q    Q    Q    Q       Q    Q    Q    Q     
G|----------------------|----------------------|
D|-------4----5----6----|--7----6----5----4----|
A|--5-------------------|----------------------|
E|----------------------|----------------------|


    Q    Q    Q    Q       Q    Q    Q    Q     
G|----------------------|----------------------|
D|-------4----5----6----|--7----6----5----4----|
A|--5-------------------|----------------------|
E|----------------------|----------------------|


    Q    Q    Q    Q       Q    Q    Q    Q     
G|----------------------|----------------------|
D|-------4----5----6----|--7----6----5----4----|
A|--5-------------------|----------------------|
E|----------------------|----------------------|


    Q    Q    Q    Q       Q    Q    Q    Q     
G|----------------------|----------------------|
D|-------4----5----6----|-------5----4---------|
A|--5-------------------|-----------------7----|
E|----------------------|--5-------------------|


    Q    Q    Q    Q       Q    Q    Q    Q     
G|----------------------|----------------------|
D|-------4----5----6----|--7----6----5----4----|
A|--5-------------------|----------------------|
E|----------------------|----------------------|


    Q    Q    Q    Q       Q    Q    Q    Q     
G|----------------------|----------------------|
D|-------4----5----6----|--7----6----5----4----|
A|--5-------------------|----------------------|
E|----------------------|----------------------|


    Q    Q    Q    Q       Q    Q    Q    Q     
G|----------------------|----------------------|
D|-------4----5----6----|-------5----4---------|
A|--5-------------------|-----------------7----|
E|----------------------|--5-------------------|


    Q    E  E  Q    Q       E  E  E  E  Q    Q     
G|-----------------------|-----4--6--7------------|
D|-------4--4--5----6----|--7---------------------|
A|--5--------------------|------------------------|
E|-----------------------|------------------------|

    W                  
    W                  
G|--7----------------||
D|-------------------||
A|-------------------||
E|-------------------||
Suggest correction
Creating personal tab
Creating personal tab
You can edit any tab online and save it as your Personal.

You can edit, replace or remove any tab part or add personal notes – all changes will be seen only by you.

Personal tabs can be accessed anytime from any device, even offline.
Learn more »
comments
print report bad tab
4 comments total. Showing first comments.
0 reply
slashjr123 26 Jul 03, 2007 12:33 PM

thanks a lot! this is the only bass tab on ultimate-guitar for this songand i'm glad you tabbed it out. great job

0 reply
lilwelshrocker 324 Jan 11, 2008 02:35 AM

could you have made this shorter instead of it being so long?

+1 reply
minifridge 60 Jul 11, 2008 08:04 PM

here's a shorter version (although unless you're really dumb you probably figured out how to use a computer by now):

“Rock this Town” - Stray Cats
G||-------------------|-------------------|-----------------|-----------------|
D||-------------------|-------------------|-----------------|-----------------|
A||-------------------|-------------------|-----------------|-----------------|
E||-------------------|-------------------|-----------------|-----------------|

-----------------------|-----------------------|
-------4--4--5----6----|--7--7--6----5----4----|
--5--------------------|-----------------------|
-----------------------|-----------------------|

-------------------------|------------------------|
--------4----5--5--6--6--|--7--7--6--6--5----4----|
--5--5-------------------|------------------------|
-------------------------|------------------------|

----------------------|------------------------| x5
-------4----5----6----|--7--7--6----5----4--4--|
--5-------------------|------------------------|
----------------------|------------------------|

----------------------|----------------------|
-------4--------------|----------------------|
------------7----4----|-------4----7----6----|
--5-------------------|--5-------------------|

----------------------|-----------------------|
----------------------|-------2----3--3--4----|
--5----3----2----3----|--5--------------------|
----------------------|-----------------------|

----------------------|----------------------|
--5----3--------------|----------------------|
------------5----2----|-------5----4----2----|
----------------------|--0-------------------|

----------------------|----------------------|
-------4----5----7----|------------5----4----|
--5-------------------|----------------------|
----------------------|--5----5--------------|

----------------------|----------------------| x7
-------4----5----6----|--7----6----5----4----|
--5-------------------|----------------------|
----------------------|----------------------|

----------------------|----------------------|
--7----4--------------|----------------------|
------------7----4----|-------4----7----6----|
----------------------|--5-------------------|

----------------------|------------------------|
----------------------|------------------------|
--5----3----2---------|--5----3--3--2--2-------|
-----------------5----|-------------------5----|

----------------------|----------------------|
-----------------2----|----------------------|
-------2----5---------|------------2----4----|
--3-------------------|--0-------------------|

----------------------|----------------------|
-------4----5----6----|-------7----5----4----|
--5-------------------|----------------------|
----------------------|--5-------------------|

----------------------|----------------------| x4
-------4----5----6----|--7----6----5----4----|
--5-------------------|----------------------|
----------------------|----------------------|

----------------------|----------------------|
-------4--------------|----------------------|
------------7----4----|-------4----7----6----|
--5-------------------|--5-------------------|

------------------------|-------------------------|
------------------------|--------2--2--3--3--4----|
--5--5--3--3--2---------|--5--5-------------------|
-------------------5----|-------------------------|

---------------------|----------------------|
---------------------|----------------------|
---------------------|--7----5----3----2----|
--3------------------|----------------------|

----------------------|----------------------|
-------4----5----6----|--7----6----5----4----|
--5-------------------|----------------------|
----------------------|----------------------|

1.
-----------------------|----------------------| x2
-------4--4--5----6----|--7----6----5----4----|
--5--------------------|----------------------|
-----------------------|----------------------|

----------------------|-----------------------|
-------4----5----6----|--7--7--6----5----4----|
--5-------------------|-----------------------|
----------------------|-----------------------|

-----------------------|----------------------|
-------4--4--5----6----|--7----6----5----4----|
--5--------------------|----------------------|
-----------------------|----------------------|

-----------------------|------------------------|
-----------------------|------------------------|
-------4----7--7--4----|--------2----3--3--4----|
--5--------------------|--5--5------------------|

-----------------------|-----------------------|
-----------------------|-----------------------|
--5----3--3--2---------|--5----3--3--2---------|
------------------5----|------------------5----|

----------------------|-----------------------|
----------------------|-----------------------|
-------2----3----5----|--7--7--5----3----2----|
--3-------------------|-----------------------|

----------

guest
You may want to rate the tab now too:
select rating
Wanna post a correction for this tab? Suggest correction