Oops, an error
Loading. Please wait.

Damien Bass Tab

866 views 15 this week
no commentswrite comment
1 2 3 4 5
excellent!
x 1
add to favorites
launch autoscroll
font size
0
reset
guitar tuner
Tab Pro tools
  • play this tab
  • loop segment
  • change instrument
  • show fretboard
  • metronome
Autoscroll
slow
fast
+/-
esc
set tempo
stop
Contributor
Difficulty
Tuning
intermediate
C G C F A D
Damien
By Stray From The Path
Bass Tab made by knowing the Guitar part so It should be Okay
Tuning-Drop C
Tab By Niles Clover

What gives you the right to think....
F----------------------------------------------------|
C----------------------------------------------------|
G-------7-7----------------7-7-----------------------|
C-22---------870----22---------870-------------------|


Picture perfect world, I picture violence in disguise.
F----------------------------------------------------|
C----------------------------------------------------|
G----------------------------------------------------|
C--22---23---22--23----------------------------------|
Play these top 2 once more before Moving on

Mini Solo
F----------------------------------------------------|
C----------------------------------------------------|  X2
G----------------------------------------------------|
C--2----8-5--7-4--2---8-5--7-4--6-3-2----------------|


I've been awake for 40 days....
F----------------------------------------------------|
C----------------------------------------------------|
G----------------------------------------------------| X2
C-2--2-2-22--2-2-22-2-2--2-5-4-2-4-0-0-1-------------|


Restless I found your weakness.
F----------------------------------------------------|
C----------------------------------------------------|
G----------------------------------------------------| X2
C-2-2-2-2-2-2-2-001--2-2-2-2-2-2-2-001---------------|


I can tell that you have been under his control...
F----------------------------------------------------|
C----------------------------------------------------|
G-------7-7----------------7-7-----------------------|
C-22---------870----22---------870-------------------|


Making subtle movements...
F----------------------------------------------------|
C----------------------------------------------------|
G----------------------------------------------------|
C--22---23---22--23----------------------------------|
Play this once more again


I am a demon so deliver me from this....
F----------------------------------------------------|
C----------------------------------------------------|
G----------------------------------------------------| X2
C-2--2-2-22--2-2-22-2-2--2-5-4-2-4-0-0-1-------------|


From this moment on...
F-----------------------------------------------------------|
C-----------------------------------------------------------|
G-----------------------------------------------------------|
C-2-2-2-2--2-2---2---2-2--2-2-2-2-2-2--2-2---2--2-2--2-2----|


And it's all starting to get old...
F-----------------------------------------------------|
C-----------------------------------------------------|
G-----------------------------------------------------|
C-2------2-22--8-5-7-4-6-3-2----2-22--8-5-7-4-6-3-2---|


Well I'm not listening...
F----------------------------------------------------|
C----------------------------------------------------|
G----------------------------------------------------|
C--2-22--8-5-7-4-6-3----2----2-22--8-5-7-4-6-3-------|


Breakdown
F----------------------------------------------------|
C----------------------------------------------------|
G----------------------------------------------------| X2
C-5--3-2---5--3-2---5--3-2---5--3-2------------------|


I've been awake for 40 days and 40 nights...
F----------------------------------------------------|
C----------------------------------------------------|
G----------------------------------------------------| X2
C-2--2-2-22--2-2-22-2-2--2-5-4-2-4-0-0-1-------------|


Restless I found your weakness....
F----------------------------------------------------|
C----------------------------------------------------|
G----------------------------------------------------| X2
C-2-2-2-2-2-2-2-001--2-2-2-2-2-2-2-001---------------|


Two Guitars do the breakdown for one bit


I am a demon so deliver me from this...
F----------------------------------------------------|
C----------------------------------------------------|
G----------------------------------------------------| X2
C-222-222-222-222--222-222--222--222-222--222-222----|


from this very moment...
F---------------------------------------------------------------|
C---------------------------------------------------------------|
G---------------------------------------------------------------|
C-2-2-2-2-2-2-2----2-2-2-2-2---2-2-2-2-2-2-2-2--2---2-2-2-2-2-2-|


I see the problems...
F----------------------------------------------------------|
C----------------------------------------------------------|
G----------------------------------------------------------|
C-1-1-1-1--1-1---1--1-1-1-1--------------------------------|


Restless, I found your weakness
F----------------------------------------------------|
C----------------------------------------------------|
G----------------------------------------------------|
C-222-222-222-222--222-222--222--222-222--222-222----|
comments
We did not receive enough feedback on this tab! Please rate:
print report bad tab
1 2 3 4 5
I want to post or [tab]
guest
You may want to rate the tab now too:
select rating
Please do not post tabs as comments. Select "correction" instead!