Oops, an error
Loading. Please wait.

Death Beds Tab

version 1
version 1

Whole song

Interactive

16 views 6 this week
no commentswrite comment
1 2 3 4 5
3 more votes to show rating
add to favorites
launch autoscroll
font size
0
reset
how to read this tab
guitar tuner
Autoscroll
slow
fast
+/-
esc
set tempo
stop
Help us to improve Ultimate-Guitar.com Take our survey!
×
Author
Difficulty
Tuning
intermediate
C G C F A D
[Death Beds]
[Rising Sun]
[Stray From The Path]

Tuning: C G C F A D
Playthrough: https://www.youtube.com/watch?v=Ko4EFexKADg

[Riff 1] - [00:00] - [00:11] - [x2]
- -----------------------------------------------------------------
- -----------------------------------------------------------------
- -----------------------------------------------------------------
- -1-----1---1-----1---------------1-----1---1-----1-----0-1-2-----
- -1-2-2-1---1-2-2-1---------------1-2-2-1---1-2-2-1-----0-1-2-----
- -1-----1---1-----1---------------1-----1---1-----1-----0-1-2-----

[Riff 2] - [00:11] - [00:31] - [x2]
- -----------------------------------------------------------------
- -------------------------------0---------------------------------
- -----------------------3-3-3---0---------------------------------
- -1-----1---1-----1-----x-x-x---0---1-2-----------4---------5-3h4-
- -1-2-2-1---1-2-2-1-----2-2-2-------1-2-----0-0-------0-------3h4-
- -1-----1---1-----1-----------------1-2-----0-0-1---0-0-1/4---3h4-
PM                                           ...       .

- -----------------------------------------------------------------
- -------------------------------0---------------------------------
- -----------------------3-3-3---0---------------------------------
- -1-----1---1-----1-----x-x-x---0---1-2-----------0-------2-------
- -1-2-2-1---1-2-2-1-----2-2-2-------1-2-----0-0-0-0-0-0-0-1-1-1-1-
- -1-----1---1-----1-----------------1-2-----0-0-0-0-0-0-0-2-2-2-2-
PM                                           .....   .....   .....


[Riff 3, Guitar 1 & 2] - [00:31] - [00:37]
- -----------------------------------------------------------------
- -----------------------------------------------------0-----------
- -----------------------------------------------------0-----------
- -1---------------1---------------1---------------1---0-----------
- -1---------------1---------------1---------------1---------------
- -1---------------1---------------1---------------1---------------
-
- -----------------------------------------------------------------
- -----------------------------------------------------0-----------
- -----------------------------------------------------0-----------
- -1-3-4-3---4-3-2-1-3-4-3---4-3-2-1-3-4-3---4-3-2-1---0-----------
- -1-1-2-3---2-3-2-1-1-2-3---2-3-2-1-1-2-3---2-3-2-1---------------
- -1-----3-----3-2-1-----3-----3-2-1-----3-----3-2-1---------------


[Riff 4] - [00:37] - [00:42]
- -----------------------------------------------------------------
- -----------------------------------------------------------------
- -----------------------------------------------------------------
- -1-3-4-3---4-3-2-1-3-4-3---4-3-2-1-3-4-3---4-3-2-1-3-4-3---4-3-2-
- -1-1-2-3---2-3-2-1-1-2-3---2-3-2-1-1-2-3---2-3-2-1-1-2-3---2-3-2-
- -1-----3-----3-2-1-----3-----3-2-1-----3-----3-2-1-----3-----3-2-

[Riff 5] - [00:42] - [00:47]
- -----------------------------------------------------------------
- -----0---------------0---------------0---------------------------
- -----0---------------0---------------0---------------------------
- -1---0-----------1---0-----------1---0-----------1---\\\---------
- -1---------------1---------------1---------------1---\\\---------
- -1---------------1---------------1---------------1---\\\---------

[Riff 4] - [00:47] - [00:52]

[Riff 6] - [00:52] - [01:05]
- -----------------------------------------------------------------
- -----2b2b2b2b2b2b2b2b2b2b2b2b2b------2b2b2b2b2b2b2b2b------------
- -----2b2b2b2b2b2b2b2b2b2b2b2b2b------2b2b2b2b2b2b2b2b------------
- -1-----------------------------1-1-------------------1-----1-----
- -1-----------------------------1-1-------------------1-----1-----
- -1-----------------------------1-1-------------------1-----1-----

- ---------------------------------------------------------------------------------
- -----2b2b2b2b2b2b2b2b2b2b2b2b2b------2b2b2b2b2b2b--------------------------------
- -----2b2b2b2b2b2b2b2b2b2b2b2b2b------2b2b2b2b2b2b--------------------------------
- -1-----------------------------1-1-1-------------0-------2-------1---------------
- -1-----------------------------1-1-1-------------0-0-0-0-1-1-1-1-1---------------
- -1-----------------------------1-1-1-------------0-0-0-0-2-2-2-2-1---------------
PM                                                   .....   .....

[Riff 7] - [01:05] - [01:06]
- -----------------------------------------------------------------
- -----------------------------------------------------------------
- -----------------------------------------------------------------
- -1-----------------------------1-1-------------------1-----1-----
- -1-----------------------------1-1-------------------1-----1-----
- -1-----------------------------1-1-------------------1-----1-----

- -----------------------------------------------------------------
- -----------------------------------------------------------------
- -----------------------------------------------------------------
- -1-----------------------------1-1-1-------------0-------2-------
- -1-----------------------------1-1-1-------------0-0-0-0-1-1-1-1-
- -1-----------------------------1-1-1-------------0-0-0-0-2-2-2-2-
PM                                                   .....   .....


[Riff 8, Guitar 1 & 2] - [01:06] - [01:26]
- -----------------------------------------------------------------
- -------------------------------0---------------------------------
- -------------------------------0---------------------------------
- -------------------------x-x---0---1-2-----------4---------5-3h4-
- -------------------------x-x-------1-2-----0-0-------0-------3h4-
- -------------------------x-x-------1-2-----0-0-1---0-0-1/4---3h4-
PM                                           ...       .
- -----------------------------------------------------------------
- -------------------------------0---------------------------------
- -------------------------------0---------------------------------
- -1-4-4-1---1-4-4-1---1-1-x-x---0---1-2-----------4---------5-3h4-
- -1-2-2-1---1-2-2-1---1-1-x-x-------1-2-----0-0-------0-------3h4-
- -1-----1---1-----1---1-1-x-x-------1-2-----0-0-1---0-0-1/4---3h4-
PM                                           ...       .


- -----------------------------------------------------------------
- -------------------------------0---------------------------------
- -----------------------3-3-3---0---------------------------------
- -1-----1---1-----1-----x-x-x---0---1-2-----------0-------2-------
- -1-2-2-1---1-2-2-1-----2-2-2-------1-2-----0-0-0-0-0-0-0-1-1-1-1-
- -1-----1---1-----1-----------------1-2-----0-0-0-0-0-0-0-2-2-2-2-
PM                                           .....   .....   .....
- -----------------------------------------------------------------
- -------------------------------0---------------------------------
- -----------------------3-3-3---0---------------------------------
- -1-----1---1-----1-----x-x-x---0---1-2-----------0-------2-------
- -1-2-2-1---1-2-2-1-----2-2-2-------1-2-----0-0-0-0-0-0-0-1-1-1-1-
- -1-----1---1-----1-----------------1-2-----0-0-0-0-0-0-0-2-2-2-2-
PM                                           .....   .....   .....


[Riff 9] - [01:26] - [01:37]
- -----------------------------------------------------------------
- -----------------------------------------------------------------
- -----------------------------------------------------------------
- -1-----1---1-----1---------------1-----1---1-----1-----0-1-2-----
- -1-2-2-1---1-2-2-1---------------1-2-2-1---1-2-2-1-----0-1-2-----
- -1-----1---1-----1---------------1-----1---1-----1-----0-1-2-----

- -----------------------------------------------------------------
- -----------------------------------------------------------------
- -----------------------------------------------------------------
- -1-----1---1-----1---------------1-----1---1-----0-------0-------
- -1-2-2-1---1-2-2-1---------------1-2-2-1---1-2-2-0-0-0-0-0-0-0-0-
- -1-----1---1-----1---------------1-----1---1-----0-0-0-0-0-0-0-0-
PM                                                   .....   .....

[Riff 10] - [01:37] - [02:!3]
- -----------------------------------------------------------------
- ---6-6---6-6-6-----6-6-------6---6-----6-6-6-6-6-6-6-6-6-6-6-6-6-
- ---9-9---9-9-9-----9-9-------9---9-----9-9-9-9-9-9-9-9-9-9-9-9-9-
- -0-----0-------0-0-----0-0-0---0---0-0---------------------------
- -0-----0-------0-0-----0-0-0---0---0-0---------------------------
- -0-----0-------0-0-----0-0-0---0---0-0---------------------------

- -----------------------------------------------------------------|-----------------
- ---6-6---6-6-6-----6-6-------6---6-----6-6-6-6-6-----------------|-----------------
- ---9-9---9-9-9-----9-9-------9---9-----9-9-9-9-9-----------------|----------------- played only after
- -0-----0-------0-0-----0-0-0---0---0-0-----------0-------0-------|-0--------------- the third time
- -0-----0-------0-0-----0-0-0---0---0-0-----------0-0-0-0-0-0-0-0-|-0---------------
- -0-----0-------0-0-----0-0-0---0---0-0-----------0-0-0-0-0-0-0-0-|-0---------------
PM                                                   .....   .....

- ----|----
- -12-|-13-
- -15-|-16- play the same pattern with each of these notes
- ----|----
- ----|----
- ----|----

[Riff 11] - [02:!3] - [02:34]
- -----------------------------------------------------------------
- -----------------------------------------------------------------
- -----------------------------------------------------------------
- -4-----4-4-----4-4-------4-4---4-4---4---------------------------
- -0-----0-0-----0-0-------0-0---0-0---0---------------------------
- -0-----0-0-----0-0-------0-0---0-0---0---------------------------

- -----------------------------------------------------------------
- -----------------------------------------------------------------
- -----------------------------------------------------------------
- -4-----4-4-----4-4-------4-4---4-4---4-----------0-------1-------
- -0-----0-0-----0-0-------0-0---0-0---0-----------0-0-0-0-1-1-1-1-
- -0-----0-0-----0-0-------0-0---0-0---0-----------0-0-0-0-1-1-1-1-
PM                                                   .....   .....

- -----------------------------------------------------------------
- -----------------------------------------------------------------
- -----------------------------------------------------------------
- -4-----4-4-----4-4-------4-4---4-4---4---------------------------
- -0-----0-0-----0-0-------0-0---0-0---0---------------------------
- -0-----0-0-----0-0-------0-0---0-0---0---------------------------

- -----------------------------------------------------------------
- -----------------------------------------------------------------
- -----------------------------------------------------------------
- -4-----4-4-----4-4-------4-4---4-4---4-----------0---------5-3h4-
- -0-----0-0-----0-0-------0-0---0-0---0-----------0-0-0-------3h4-
- -0-----0-0-----0-0-------0-0---0-0---0-----------0-0-0-1/4---3h4-
PM                                                   ...

[Symbols]

PM... Palm Mute notes with (...) under them
AP... Alternate Pick notes with (...) under them
h     Hammer On
p     Pull Off
[ ]   Harmonic
/     Slide Up
\     Slide Down
x     Dead Note
b     Bend
hb    Hold Bend
p     Pre-Bend
r     Release Bend
(x )  Play Notes x amount of times
~     Let Ring
\\\   Pick Slide Down
/ 3 \ Notes are triplets (3 notes in the space of two)
w\    Whammy Bar Down
w/    Whammy Bar Up
T     Right Hand Tap

:)
Suggest correction
Give kudos to tab author, rate the tab!
1 2 3 4 5
comments
print report bad tab
guest
You may want to rate the tab now too:
select rating
Wanna post a correction for this tab? Suggest correction