Oops, an error
Loading. Please wait.

Fraudulent Tab

529 views 6 this week
no commentswrite comment
1 2 3 4 5
please rate
add to favorites
launch autoscroll
font size
0
reset
how to read this tab
guitar tuner
Autoscroll
slow
fast
+/-
esc
set tempo
stop
Help us to improve Ultimate-Guitar.com Take our survey!
×
Contributor
Difficulty
Tuning
millarso 2,871
intermediate
C G C F A D
-----------------------------------------------------------------
Fraudulent - Stray From The Path
-----------------------------------------------------------------
Tabbed by: millarso (Jake Miller)
Email: millarso2.0@gmail.com
Tuning: Drop C

Riff 1 (After feedback)
Both Guitars
D|--------------------------------------------------------------|
A|-------4--------------4--------------4----------------------5-|
F|-------4--------------4--------------4----------------------5-|
c|-3-3-3---3-3---3--0-3---3-3-3--3-3-3---3-3---6--4-4-4-4-4-4---|x2
G|-3-3-3---3-3---3--0-3---3-3-3--3-3-3---3-3---6--4-4-4-4-4-4---|
C|-3-3-3---3-3---3--0-3---3-3-3--3-3-3---3-3---6--4-4-4-4-4-4---|

Note: It sounds good to do sloppy little bends on the notes on A and F strings

Riff 2
Both Guitars
D|------------------------|
A|---4b---------5b---6b---|
F|---4b---------5b---6b---|
c|-3----3-6-3-4----4------|x4
G|-3----3-6-3-4----4------|
C|-3----3-6-3-4----4------|

Riff 3
Guitar 1
D|--------------------------------------------------------------|
A|--------------------------------------------------------------|
F|--(2)---------------------------------------------------------|
c|-3-7-3-3-7-3-7-3-3-7-3-7-3-4-7--3-7-3-3-7-3-3-3-7-3-7-3-4-7-4-|x2
G|-3---3-3---3---3-3---3---3-4----3---3-3---3-3-3---3---3-4---4-|
C|-3---3-3---3---3-3---3---3-4----3---3-3---3-3-3---3---3-4---4-|

Guitar 2
D|--------------------------------------------------------------|
A|--------------------------------------------------------------|
F|--(1)---------------------------------------------------------|
c|-3-6-3-3-6-3-6-3-3-6-3-6-3-4-6--3-6-3-3-6-3-3-3-6-3-6-3-4-6-4-|x2
G|-3---3-3---3---3-3---3---3-4----3---3-3---3-3-3---3---3-4---4-|
C|-3---3-3---3---3-3---3---3-4----3---3-3---3-3-3---3---3-4---4-|

Note: The notes in parentheses are interchangeable with the note they are above so use 
whichever one is easier for you/sounds better on your guitar.

Riff 4
Both Guitars
D|------------------------------------------------------|
A|------------------------5-------------------------5---|
F|------------------------5-------------------------5---|
c|-3--3-3--3--3-3--3--3-4---4--3--3-3-----3--3--3-4---4-|
G|-3--3-3--3--3-3--3--3-4---4--3--3-3-----3--3--3-4---4-|
C|-3--3-3--3--3-3--3--3-4---4--3--3-3-----3--3--3-4---4-|

D|------------------------------------------------------|
A|------------------------5-------------------------5---|
F|------------------------5-------------------------5---|
c|-3--3-3--3--3-3-----3-4---4--3--3-3--3--3--3--3-4---4-|
G|-3--3-3--3--3-3-----3-4---4--3--3-3--3--3--3--3-4---4-|
C|-3--3-3--3--3-3-----3-4---4--3--3-3--3--3--3--3-4---4-|

Riff 5 (near identical to 4)
Both Guitars
D|------------------------------------------------------|
A|------------------------5-------------------------5---|
F|------------------------5-------------------------5---|
c|-3--3-3--3--3-3--3--3-4---4--3--3-3-----3--3--3-4---4-|
G|-3--3-3--3--3-3--3--3-4---4--3--3-3-----3--3--3-4---4-|
C|-3--3-3--3--3-3--3--3-4---4--3--3-3-----3--3--3-4---4-|

D|--------------------------------------------------|
A|------------------------5-------------------------|
F|------------------------5-------------------------|
c|-3--3-3--3--3-3-----3-4---4--3--3-3-11\--3----3---|
G|-3--3-3--3--3-3-----3-4---4--3--3-3-11\--3----3---|
C|-3--3-3--3--3-3-----3-4---4--3--3-3-11\--3----3---|

Repeat Riff 2
Repeat Riff 1

Riff 6
Guitar 1 (identical to Riff 5)
D|------------------------------------------------------|
A|------------------------5-------------------------5---|
F|------------------------5-------------------------5---|
c|-3--3-3--3--3-3--3--3-4---4--3--3-3-----3--3--3-4---4-|
G|-3--3-3--3--3-3--3--3-4---4--3--3-3-----3--3--3-4---4-|
C|-3--3-3--3--3-3--3--3-4---4--3--3-3-----3--3--3-4---4-|

Guitar 2
D|------------------------------------------------------|
A|------------------------------------------------------|
F|------------------------------------------------------|
c|-3--3-3--3--3-3-----3-3------3--3-3-----3-----3-------|
G|-3--3-3--3--3-3-----3-3------3--3-3-----3-----3-------|
C|-3--3-3--3--3-3-----3-3------3--3-3-----3-----3-------|

Guitar 1
D|-------------------------------------------------|
A|------------------------5------------------------|
F|------------------------5------------------------|
c|-3--3-3--3--3-3-----3-4---4--3--3-3-----3----3---|
G|-3--3-3--3--3-3-----3-4---4--3--3-3-----3----3---|
C|-3--3-3--3--3-3-----3-4---4--3--3-3-----3----3---|

Guitar 2
D|-------------------------------------------------|
A|-------------------------------------------------|
F|-------------------------------------------------|
c|-3--3-3--3--3-3-----3-3------3--3-3-----3----3---|
G|-3--3-3--3--3-3-----3-3------3--3-3-----3----3---|
C|-3--3-3--3--3-3-----3-3------3--3-3-----3----3---|

Riff 7
Guitar 1
D|---------------------------------------------------------|
A|---------------------------------------------------------|
F|---------------------------------------------------------|
c|-----3--3-3-------3---------3--3-3-------3-------3-------|
G|-----3--3-3-3-3-3-3-3-3-3-3-3--3-3-3-3-3-3-3-3-3-3-3-3-3-|
C|-11//3--3-3-3-3-3-3-3-3-3-3-3--3-3-3-3-3-3-3-3-3-3-3-3-3-|
              . . .   . . . .        . . .   . . .   . . .

Guitar 2
D|---------------------------------------------------------|
A|---------------------------------------------------------|
F|---------------------------------------------------------|
c|-----3--3-3-------3---------3--3-3-------3-------3-------|
G|-----3--3-3-3-3-3-3-3-3-3-3-3--3-3-3-3-3-3-3-3-3-3-3-3-3-|
C|--8//3--3-3-3-3-3-3-3-3-3-3-3--3-3-3-3-3-3-3-3-3-3-3-3-3-|
              . . .   . . . .        . . .   . . .   . . .

Guitar 1
D|---------------------------------------------------------|
A|---------------------------------------------------------|
F|---------------------------------------------------------|
c|-----3--3-3-------3---------3--3-3-------3-------3-------|
G|-----3--3-3-3-3-3-3-3-3-3-3-3--3-3-3-3-3-3-3-3-3-3-3-3-3-|
C|-11//3--3-3-3-3-3-3-3-3-3-3-3--3-3-3-3-3-3-3-3-3-3-3-3-3-|
              . . .   . . . .        . . .   . . .   . . .

Guitar 2
D|---------------------------------------------------------|
A|---------------------------------------------------------|
F|---------------------------------------------------------|
c|-----3--3-3-------3---------3--3-3-------3-------3-------|
G|-----3--3-3-------3---------3--3-3-------3-------3-------|
C|--8//3--3-3-------3---------3--3-3-------3-------3-------|

Riff 8 (some hard to interpret feedback/notes in the background)
Both Guitars
D|--------------------------------------------------------------|
A|--------------------------------------------------------------|
F|--(2)---------------------------------------------------------|
c|---7-----7---7-----7---7-----7----7-----7-------7---7-----7---|x2
G|--------------------------------------------------------------|
C|-3---3-3---3---3-3---3---3-4----3---3-3---3-3-3---3---3-4---4-|

Riff 9
Guitar 1
D|--------------------------------------------------------------|
A|--------------------------------------------------------------|
F|--(1)---------------------------------------------------------|
c|---6-----6---6-----6---6-----6----6-----6-------6---6-----6---|x2
G|--------------------------------------------------------------|
C|-3---3-3---3---3-3---3---3-4----3---3-3---3-3-3---3---3-4---4-|

Guitar 2
D|--------------------------------------------------------------|
A|--------------------------------------------------------------|
F|--------------------------------------------------------------|
c|-3-3-3-3-3-3-3-3-3-3-3-3-3-4-4--3-3-3-3-3-3-3-3-3-3-3-3-4-4-4-|x2
G|-3-3-3-3-3-3-3-3-3-3-3-3-3-4-4--3-3-3-3-3-3-3-3-3-3-3-3-4-4-4-|
C|-3-3-3-3-3-3-3-3-3-3-3-3-3-4-4--3-3-3-3-3-3-3-3-3-3-3-3-4-4-4-|

Outro
Guitar 1
D|--------------------------------|
A|--------------------------------|
F|--(1)---------------------------|
c|---6-----6---6-----6---6-----6--|
G|--------------------------------|
C|-3---3-3---3---3-3---3---3-4----|

Guitar 2
D|--------------------------------|
A|--------------------------------|
F|--------------------------------|
c|-3-3-3-3-3-3-3-3-3-3-3-3-3-4-4--|
G|-3-3-3-3-3-3-3-3-3-3-3-3-3-4-4--|
C|-3-3-3-3-3-3-3-3-3-3-3-3-3-4-4--|

Song end with more haunting feedback/delay/what-have-you.
I think this sounds pretty good, but if you disagree let me know what's wrong.
Please rate & comment.
Thanks,
millarso
comments
We did not receive enough feedback on this tab! Please rate:
print report bad tab
1 2 3 4 5
I want to post or [tab]
guest
You may want to rate the tab now too:
select rating
Please do not post tabs as comments. Select "correction" instead!