Oops, an error
Loading. Please wait.

Goodnight Alt-Right tab

version 1
version 1

Whole song

Interactive

109 views 15 this week
no commentswrite comment
1 2 3 4 5
2 more votes to show rating
add to favorites
×
Save as Personal and add changes to this tab that will be seen only by you. Learn more ›
×
You can save this tab as Personal to edit and correct it or add notes. All changes will be seen only by you. Learn more »
launch autoscroll
font size
0
reset
how to read this tab
guitar tuner
edit
Autoscroll
slow
fast
+/-
esc
set tempo
stop
[Goodnight Alt-Right]
[Only Death Is Real]
[Stray From The Path]

Tuning: C G C F A D
Playthough: https://www.youtube.com/watch?v=v1ClI84V0bw

[Riff 1] - [00:00] - [00:19]
- -------------------------------------------------------------------
- -------------------------------------------------------------------
- -------------------------------------------------------------------
- -------------------------------------------------------------------
- -------------------------------------------------------------------
- -0-8---0-8-7-0-5---7---0-8-7-0-3---5---0-8-7-0-8---0---[3-3-3-3-3]-

- -------------------------------------------------------------------
- -------------------------------------------------------------------
- -------------------------------------------------------------------
- -------------------------------------------------------------------
- -------------------------------------------------------------------
- -0-8---0-8-7-0-5---7---0-8-7-0-3---5---0-8-7-0-10--0---[3-3-3-3-3]-

- -------------------------------------------------------------------
- -------------------------------------------------------------------
- -------------------------------------------------------------------
- -------------------------------------------------------------------
- -------------------------------------------------------------------
- -0-8---0-8-7-0-5---7---0-8-7-0-3---5---0-8-7-0-8---0---[3-3-3-3-3]-

- -------------------------------------------------------------------
- -------------------------------------------------------------------
- -------------------------------------------------------------------
- -------------------------------------------------------------------
- -------------------------------------------------------------------
- -0-8---0-8-7-0-5---7---0-8-7-0-3---5---0-8-7-0-10--0---------------

[Riff 2] - [00:19] - [00:38] - [x2]
- -------------------------------------------------------------------
- -------------------------------------------------------------------
- -------------------------------------------------------------------
- -0-8---0-8-7-0-5---7---0-8-7-0-3---5---0-8-7-0-8---0---------------
- -0-8---0-8-7-0-5---7---0-8-7-0-3---5---0-8-7-0-8---0---------------
- -0-8---0-8-7-0-5---7---0-8-7-0-3---5---0-8-7-0-8---0---[3-3-3-3-3]-

- -------------------------------------------------------------------
- -------------------------------------------------------------------
- -------------------------------------------------------------------
- -0-8---0-8-7-0---------0-8-7-0---------0-8-7-0-10------------------
- -0-8---0-8-7-0---------0-8-7-0---------0-8-7-0-10--0-000-----------
- -0-8---0-8-7-0-5---7b--0-8-7-0-3---5b--0-8-7-0-10--0-000-[3-3-3-3]-
PM                                                   .....

[Riff 3] - [00:36] - [00:58] - [x2]
- -----------------------------------------------------------------
- -----------------------------------------------------------------
- -----------------------------------------------------------------
- -----------------------------------------------------------------
- -----------------------------------------------------------------
- -0-0-----0-0-----0-0----------00---0---7---5-0-8--\3---33--33--3-

- -----------------------------------------------------------------
- -----------------------------------------------------------------
- -----------------------------------------------------------------
- -----------------------------------------------------------------
- -----------------------------------------------------------------
- -0-0-----0-0-----0-0----------00---0---7---5-0-8--\7---77--77--7-

[Riff 4] - [00:58] - [01:17]
- ------------------------------------------------------------------------
- ------------------------------------------------------------------------
- ------------------------------------------------------------------------
- ------------------------------------------------------------------------
- -------------------------------------00---0---7---5-0-8--\3---33--33--3-
- -0-0-[3-3]-0-0-[3-3]-0-0-[3-3-3-3-3]-00---0---7---5-0-8--\3---33--33--3-

- ------------------------------------------------------------------------
- ------------------------------------------------------------------------
- ------------------------------------------------------------------------
- ------------------------------------------------------------------------
- -------------------------------------00---0---7---5-0-8--\7---77--77--7-
- -0-0-[3-3]-0-0-[3-3]-0-0-[3-3-3-3-3]-00---0---7---5-0-8--\7---77--77--7-

- ------------------------------------------------------------------------
- ------------------------------------------------------------------------
- ------------------------------------------------------------------------
- ------------------------------------------------------------------------
- -------------------------------------00---0---7---5-0-8--\3---33--33--3-
- -0-0-[3-3]-0-0-[3-3]-0-0-[3-3-3-3-3]-00---0---7---5-0-8--\3---33--33--3-

- ------------------------------------------------------------------------
- ------------------------------------------------------------------------
- ------------------------------------------------------------------------
- ---------------------------------------------------------/3\/3\---------
- -------------------------------------00---0---0---0-0----0000000--------
- -0-0-[3-3]-0-0-[3-3]-0-0-[3-3-3-3-3]-00---0---0---0-0----0000000--------
PM                                                         .......

[Riff 2] - [01:17] - [01:36] - [x2]

[Riff 5] - [01:36] - [01:55]
- -----------------------------------------------------------------
- -----------------------------------------------------------------
- -----------------------------------------------------------------
- -----------------------------------------------------------------
- -----------------------------------------------------------------
- -0-0-----0-0-----0-0----------00---0---7---5-0-8--\3---33--33--3-

- -----------------------------------------------------------------
- -----------------------------------------------------------------
- -----------------------------------------------------------------
- -----------------------------------------------------------------
- -----------------------------------------------------------------
- -0-0-----0-0-----0-0----------00---0---7---5-0-8--\7---77--77--7-

- -----------------------------------------------------------------
- -----------------------------------------------------------------
- -----------------------------------------------------------------
- -----------------------------------------------------------------
- -----------------------------------------------------------------
- -0-0-----0-0-----0-0----------00---0---7---5-0-8--\3---33--33--3-

- -----------------------------------------------------------------
- -----------------------------------------------------------------
- -----------------------------------------------------------------
- -----------------------------------------------------------------
- -----------------------------------------------------------------
- -0-0-----0-0-----0-0----------00---0---0---0-0-0-----------------

[Riff 6] - [01:55] - [02:15]
- -------------------------------------------------------------------
- -------------------------------------------------------------------
- -------------------------------------------------------------------
- -0-8---0-8-7-0-5---7---0-8-7-0-3---5---0-8-7-0-8---0---------------
- -0-8---0-8-7-0-5---7---0-8-7-0-3---5---0-8-7-0-8---0---------------
- -0-8---0-8-7-0-5---7---0-8-7-0-3---5---0-8-7-0-8---0---[3-3-3-3-3]-

- -------------------------------------------------------------------
- -------------------------------------------------------------------
- -------------------------------------------------------------------
- -0-8---0-8-7-0---------0-8-7-0---------0-8-7-0-10------------------
- -0-8---0-8-7-0---------0-8-7-0---------0-8-7-0-10--0-000-----------
- -0-8---0-8-7-0-5---7b--0-8-7-0-3---5b--0-8-7-0-10--0-000-[3-3-3-3]-
PM                                                   .....

- -------------------------------------------------------------------
- -------------------------------------------------------------------
- -------------------------------------------------------------------
- -0-8---0-8-7-0-5---7---0-8-7-0-3---5---0-8-7-0-8---0---------------
- -0-8---0-8-7-0-5---7---0-8-7-0-3---5---0-8-7-0-8---0---------------
- -0-8---0-8-7-0-5---7---0-8-7-0-3---5---0-8-7-0-8---0---[3-3-3-3-3]-

- ---------------------------------------------------------------------
- ---------------------------------------------------------------------
- ---------------------------------------------------------------------
- -0-8---0-8-7-0---------0-8-7-0---------0-8-7-0-10-3------3------3----
- -0-8---0-8-7-0---------0-8-7-0---------0-8-7-0-10-3-0000-3-0000-3-00-
- -0-8---0-8-7-0-5---7b--0-8-7-0-3---5b--0-8-7-0-10-3-0000-3-0000-3-00-
PM                                                    ....   ....   ..


[Riff 7, Guitar 1 & 2] - [02:15] - [02:27]
- ---------------------------------------------------------------------------------------------------
- ---------------------------------------------------------------------------------------------------
- -----4p0-4p0-5p0-4p0-----4p0-4p0-5p0-4p0---------------4p0-4p0-5p0-------4p0-4p0-3p0-3p0-----------
- -2-------------------2-------------------3----3----2---------------7-2-------------------3----3----
- -2-------------------2-------------------3-00-3-00-2---------------7-2-------------------3-00-3-00-
- -2-------------------2-------------------3-00-3-00-2---------------7-2-------------------3-00-3-00-
PM                                           ..   ..                                         ..   ..
- ---------------------------------------------------------------------------------------------------
- ---------------------------------------------------------------------------------------------------
- ---------------------------------------------------------------------------------------------------
- -2-------------------2-------------------3----3----2---------------7-2-------------------3----3----
- -2-------------------2-------------------3-00-3-00-2---------------7-2-------------------3-00-3-00-
- -2-------------------2-------------------3-00-3-00-2---------------7-2-------------------3-00-3-00-
PM                                           ..   ..                                         ..   ..


- ---------------------------------------------------------------------------------------------
- ---------------------------------------------------------------------------------------------
- -----4p0-4p0-5p0-4p0-----4p0-4p0-5p0-4p0---------------4p0-4p0-5p0---------------------------
- -2-------------------2-------------------3----3----2---------------7-2----3------3------3----
- -2-------------------2-------------------3-00-3-00-2---------------7-2----3-0000-3-0000-3-00-
- -2-------------------2-------------------3-00-3-00-2---------------7-2----3-0000-3-0000-3-00-
PM                                           ..   ..                          ....   ....   ..
- ---------------------------------------------------------------------------------------------
- ---------------------------------------------------------------------------------------------
- ---------------------------------------------------------------------------------------------
- -2-------------------2-------------------3----3----2---------------7-2----3------3------3----
- -2-------------------2-------------------3-00-3-00-2---------------7-2----3-0000-3-0000-3-00-
- -2-------------------2-------------------3-00-3-00-2---------------7-2----3-0000-3-0000-3-00-
PM                                           ..   ..                          ....   ....   ..


[Riff 8, Guitar 1 & 2] - [02:27] - [02:40]
- ---------------------------------------------------------------------------------------------------
- ---------------------------------------------------------------------------------------------------
- -----4p0-4p0-5p0-4p0-----4p0-4p0-5p0-4p0---------------4p0-4p0-5p0-------4p0-4p0-3p0-3p0-----------
- -2-------------------2-------------------3----3----2---------------7-2-------------------3----3----
- -2-------------------2-------------------3-00-3-00-2---------------7-2-------------------3-00-3-00-
- -2-------------------2-------------------3-00-3-00-2---------------7-2-------------------3-00-3-00-
PM                                           ..   ..                                         ..   ..
- ---------------------------------------------------------------------------------------------------
- ---------------------------------------------------------------------------------------------------
- -----5p0-5p0-6p0-5p0-----5p0-5p0-6p0-5p0---------------5p0-5p0-6p0-------5p0-5p0-4p0-4p0-----------
- -2-------------------2-------------------3----3----2---------------7-2-------------------3----3----
- -2-------------------2-------------------3-00-3-00-2---------------7-2-------------------3-00-3-00-
- -2-------------------2-------------------3-00-3-00-2---------------7-2-------------------3-00-3-00-
PM                                           ..   ..                                         ..   ..


- ---------------------------------------------------------------------------------------------------
- ---------------------------------------------------------------------------------------------------
- -----4p0-4p0-5p0-4p0-----4p0-4p0-5p0-4p0---------------4p0-4p0-5p0-------4p0-4p0-3p0-3p0-----------
- -2-------------------2-------------------3----3----2---------------7-2-------------------3----3----
- -2-------------------2-------------------3-00-3-00-2---------------7-2-------------------3-00-3-00-
- -2-------------------2-------------------3-00-3-00-2---------------7-2-------------------3-00-3-00-
PM                                           ..   ..                                         ..   ..
- ---------------------------------------------------------------------------------------------------
- ---------------------------------------------------------------------------------------------------
- -----5p0-5p0-6p0-5p0-----5p0-5p0-6p0-5p0---------------5p0-5p0-6p0---------------------------------
- -2-------------------2-------------------3----3----2---------------7-2---3-------------------------
- -2-------------------2-------------------3-00-3-00-2---------------7-2---3-------------------------
- -2-------------------2-------------------3-00-3-00-2---------------7-2---3-------------------------
PM                                           ..   ..


[Riff 9, Guitar 1 & 2] - [02:40] - [03:06]
- -----0-0-0-------0-0-0-----------------0-0-0-------0-0-0-------------
- -----0-0-0-0-----0-0-0-0---------------0-0-0-0-----0-0-0-0-----------
- -----3-3-3-0-----3-3-3-0---------------3-3-3-0-----3-3-3-0-----------
- -2---------0-2---------0-3----3----2---------0-2---------0-3----3----
- -2-----------2-----------3-00-3-00-2-----------2-----------3-00-3-00-
- -2-----------2-----------3-00-3-00-2-----------2-----------3-00-3-00-
PM                           ..   ..                           ..   ..
- ---------------------------------------------------------------------
- -----0-0-0-------0-0-0-----------------0-0-0-------0-0-0-------------
- -----3-3-3-------3-3-3-----------------3-3-3-------3-3-3-------------
- -2---------0-2---------0-3----3----2---------0-2---------0-3----3----
- -2---------0-2---------0-3-00-3-00-2---------0-2---------0-3-00-3-00-
- -2---------0-2---------0-3-00-3-00-2---------0-2---------0-3-00-3-00-
PM                           ..   ..                           ..   ..


- -----0-0-0-------0-0-0-----------------0-0-0--------------------------
- -----0-0-0-0-----0-0-0-0---------------0-0-0-0------------------------
- -----3-3-3-0-----3-3-3-0---------------3-3-3-0------------------------
- -2---------0-2---------0-3----3----2---------0-2---3------3------3----
- -2-----------2-----------3-00-3-00-2-----------2---3-0000-3-0000-3-00-
- -2-----------2-----------3-00-3-00-2-----------2---3-0000-3-0000-3-00-
PM                           ..   ..                   ....   ....   ..
- ----------------------------------------------------------------------
- -----0-0-0-------0-0-0-----------------0-0-0--------------------------
- -----3-3-3-------3-3-3-----------------3-3-3--------------------------
- -2---------0-2---------0-3----3----2---------0-2---3------3------3----
- -2---------0-2---------0-3-00-3-00-2---------0-2---3-0000-3-0000-3-00-
- -2---------0-2---------0-3-00-3-00-2---------0-2---3-0000-3-0000-3-00-
PM                           ..   ..                   ....   ....   ..


- -----0-0-0-------0-0-0-----------------0-0-0-------0-0-0-------------
- -----0-0-0-0-----0-0-0-0---------------0-0-0-0-----0-0-0-0-----------
- -----3-3-3-0-----3-3-3-0---------------3-3-3-0-----3-3-3-0-----------
- -2---------0-2---------0-3----3----2---------0-2---------0-3----3----
- -2-----------2-----------3-00-3-00-2-----------2-----------3-00-3-00-
- -2-----------2-----------3-00-3-00-2-----------2-----------3-00-3-00-
PM                           ..   ..                           ..   ..
- ---------------------------------------------------------------------
- -----0-0-0-------0-0-0-----------------0-0-0-------0-0-0-------------
- -----3-3-3-------3-3-3-----------------3-3-3-------3-3-3-------------
- -2---------0-2---------0-3----3----2---------0-2---------0-3----3----
- -2---------0-2---------0-3-00-3-00-2---------0-2---------0-3-00-3-00-
- -2---------0-2---------0-3-00-3-00-2---------0-2---------0-3-00-3-00-
PM                           ..   ..                           ..   ..


- -----0-0-0-------0-0-0-----------------0-0-0------------------------------------------
- -----0-0-0-0-----0-0-0-0---------------0-0-0-0----------------------------------------
- -----3-3-3-0-----3-3-3-0---------------3-3-3-0----------------------------------------
- -2---------0-2---------0-3----3----2---------0-2---3------3------3----2---------------
- -2-----------2-----------3-00-3-00-2-----------2---3-0000-3-0000-3-00-2---------------
- -2-----------2-----------3-00-3-00-2-----------2---3-0000-3-0000-3-00-2---------------
PM                           ..   ..                   ....   ....   ..
- --------------------------------------------------------------------------------------
- -----0-0-0-------0-0-0-----------------0-0-0------------------------------------------
- -----3-3-3-------3-3-3-----------------3-3-3------------------------------------------
- -2---------0-2---------0-3----3----2---------0-2---3------3------3----2---------------
- -2---------0-2---------0-3-00-3-00-2---------0-2---3-0000-3-0000-3-00-2---------------
- -2---------0-2---------0-3-00-3-00-2---------0-2---3-0000-3-0000-3-00-2---------------
PM                           ..   ..                   ....   ....   ..


[Symbols]

PM... Palm Mute notes with (...) under them
AP... Alternate Pick notes with (...) under them
h     Hammer On
p     Pull Off
[ ]   Harmonic
/     Slide Up
\     Slide Down
x     Dead Note
b     Bend
hb    Hold Bend
pb    Pre-Bend
r     Release Bend
(x )  Play Notes x amount of times
~     Let Ring
\\\   Pick Slide Down
///   Pick Slide Up
/ 3 \ Notes are triplets (3 notes in the space of two)
w\    Whammy Bar Down
w/    Whammy Bar Up
wh    Whammy Bar Hold
T     Right Hand Tap
L     Left Hand Tap

:)

            
            
Suggest correction
Creating personal tab
Creating personal tab
You can edit any tab online and save it as your Personal.

You can edit, replace or remove any tab part or add personal notes – all changes will be seen only by you.

Personal tabs can be accessed anytime from any device, even offline.
Learn more »
Give kudos to tab author, rate the tab!
1 2 3 4 5
comments
print report bad tab
guest
You may want to rate the tab now too:
select rating
Wanna post a correction for this tab? Suggest correction