Oops, an error
Loading. Please wait.

Nigeria Tab

version 1
version 1

Whole song

Interactive

7 views 1 this week
no commentswrite comment
1 2 3 4 5
3 more votes to show rating
add to favorites
launch autoscroll
font size
0
reset
how to read this tab
guitar tuner
Autoscroll
slow
fast
+/-
esc
set tempo
stop
Help us to improve Ultimate-Guitar.com Take our survey!
×
Author
Difficulty
Tuning
intermediate
C G C F A D
[Nigeria]
[Make Your own History]
[Stray From The Path]

Tuning: C G C F A D
Playthrough: https://www.youtube.com/watch?v=I7OC7l4ZCWE


[Riff 1, Guitar 1 & 2] - [00:00] - [00:17] - [x4]
- ------------------------------------------------------
- ------------------------------------------------------
- ------------------------------------------------------
- -----3-----4---------10-------4-----3-----------------
- ---1-----2---------7--------1-----2---------2/4-----6-
- -2-----1-------3/8------8-2-----1-------5\3-----5/7---
-
- ------------------------------------------------------
- ------------------------------------------------------
- ------------------------------------------------------
- -----4-----3---------7--------4-----3-----------------
- ---1-----2---------4--------1-----2---------2/4-----6-
- -2-----1-------3/5------5-2-----1-------5\3-----5/7---


[Riff 2a] - [00:17] - [00:38] - [x2]
- -----------------------------------------------------------------
- -----------------------------------------------------------------
- -3-3-3-3-3-3-3-3-3-3-3-------------------------------------------
- -1-1-1-1-1-1-1-1-1-1-1-------7---6-6-6-6-6-6-6-6-6-6-6-----------
- -1-1-1-1-1-1-1-1-1-1-1-----4-----0-0-0-0-0-0-0-0-0-0-0-----2/4---
- -1-1-1-1-1-1-1-1-1-1-1-3/5-----5-0-0-0-0-0-0-0-0-0-0-0-5\3-----5-

- -----------------------------------------------------------------
- -----------------------------------------------------------------
- -3-3-3-3-3-3-3-3-3-3-3-------------------------------------------
- -1-1-1-1-1-1-1-1-1-1-1-------7---7-7-7-7-7-7-7-7-7-7-7-----------
- -1-1-1-1-1-1-1-1-1-1-1-----4-----0-0-0-0-0-0-0-0-0-0-0-----2/4---
- -1-1-1-1-1-1-1-1-1-1-1-3/5-----5-0-0-0-0-0-0-0-0-0-0-0-5\3-----5-

[Riff 2b] - [00:28] - [00:38]
- -----------------------------------------------------------------
- -----------------------------------------------------------------
- -14------------------------------13------------------------------
- -x-------------------------------x-------------------------------
- -12(16x)-------------------------11(16x)-------------------------
- -----------------------------------------------------------------

- -----------------------------------------------------------------
- ---------------------------------14------------------------------
- -14------------------------------x-------------------------------
- -x-------------------------------11(16x)-------------------------
- -12(16x)---------------------------------------------------------
- -----------------------------------------------------------------


[Riff 3, Guitar 1 & 2] - [00:38] - [00:54] - [x3]     T        T       T        T
- --------------------------------------------------------------------------------------
- --------------------------------------------------------------------------------------
- ---------------------------------------------------------------------15p0h2h5-15/18p0-
- ---1---1---1---1-----4-----4-0h3h60---1---1---1---1-15p0h2h5-15/18p0------------------
- -0-1---1---1---1--------------------0-1---1---1---1-----------------------------------
- -0-1---1---1---1-1h3---4h5----------0-1---1---1---1-----------------------------------
PM .                                  .               T        T       T        T
- --------------------------------------------------------------------------------------
- --------------------------------------------------------------------------------------
- ---------------------------------------------------------------------16p0h3h6-16/19p0-
- ---1---1---1---1-----4-----4-0h3h60---1---1---1---1-16p0h3h6-16/19p0------------------
- -0-1---1---1---1--------------------0-1---1---1---1-----------------------------------
- -0-1---1---1---1-1h3---4h5----------0-1---1---1---1-----------------------------------
PM .                                  .


[Riff 4, Guitar 1 & 2] - [00:54] - [01:02]
- -------------------------------------------------------------------------------------------------
- -------------------------------------------------------------------------------------------------
- -------------------------------------------------------------------------------------------------
- ---2---2---2---2-------------------2---2---2---2---2---2---2---2---2---2---2---2-----------------
- -0-1---1---1---1-0---------------0-1---1---1---1-0-1---1---1---1-0-1---1---1---1-----------------
- -0-2---2---2---2-0---------------0-2---2---2---2-0-2---2---2---2-0-2---2---2---2-----------------
PM .               .               .               .               .
- -------------------------------------------------------------------------------------------------
- -------------------------------------------------------------------------------------------------
- -------------------------------------------------------------------------------------------------
- -------------------2---2---2---2---2---2---2---2-------------------2---2---2---2---2---2---2---2-
- -----------------0-1---1---1---1-0-1---1---1---1-----------------0-1---1---1---1-0-1---1---1---1-
- -----------------0-2---2---2---2-0-2---2---2---2-----------------0-2---2---2---2-0-2---2---2---2-
PM                 .               .                               .               .


[Riff 5, Guitar 1 & 2] - [01:02] - [01:13] - [x2]
- -------------------------------------------------------------------
- -------------------------------------------------------------------
- -------------------------------------------------------------------
- -------------------------------------------------------------------
- -1-1---1---1---1------------------1-1---1-1-1---1------------------
- -2-2---2---2---2-4-4---4---4---4b-2-2---2-2-2---2-4-4---4---4---4b-
PM ...............                  ...............
- -------------------------------------------------------------------
- -------------------------------------------------------------------
- -------------------------------------------------------------------
- -------------------------------------------------------------------
- -1-1---1---1---1------------------1-1---1-1-1---1------------------
- -2-2---2---2---2-1-1---1---1---1b-2-2---2-2-2---2-1-1---1---1---1b-
PM ...............                  ...............


[Riff 6] - [01:!3] - [01:24] - [x2]
- -----------------------------------------------------------------
- -----------------------------------------------------------------
- -----------------------------------------------------------------
- ---------------0-----------------------0-------------------------
- -1-1---1---1---0-----0---1-1---1---1---0-----0---1-1---1---1---1-
- -2-2---2---2---0-----0---2-2---2---2---0-----0---2-2---2---2---2-
PM ...........         ...............         ...................


[Riff 1, Guitar 1 & 2] - [01:24] - [01:41] - [x4]
[Riff 3, Guitar 1 & 2] - [01:41] - [01:52] - [x2]


[Riff 7, Guitar 1 & 2] - [01:52] - [
- -----------------------------------
- -----------------------------------
- -----------------------------------
- ---2---2---2---2-----------------0-
- -0-1---1---1---1-0---------------0-
- -0-2---2---2---2-0---------------0-
PM .               .
- -----------------------------------
- -----------------------------------
- -----------------------------------
- -------------------2---2---2---2-0-
- -----------------0-1---1---1---1-0-
- -----------------0-2---2---2---2-0-
PM                 .

[Symbols]

PM... Palm Mute notes with (...) under them
AP... Alternate Pick notes with (...) under them
h     Hammer On
p     Pull Off
[ ]   Harmonic
/     Slide Up
\     Slide Down
x     Dead Note
b     Bend
hb    Hold Bend
p     Pre-Bend
r     Release Bend
(x )  Play Notes x amount of times
~     Let Ring
/ 3 \ Notes are triplets (3 notes in the space of two)
w\    Whammy Bar Down
w/    Whammy Bar Up
T     Right Hand Tap

:)
Suggest correction
Give kudos to tab author, rate the tab!
1 2 3 4 5
comments
print report bad tab
guest
You may want to rate the tab now too:
select rating
Wanna post a correction for this tab? Suggest correction