Oops, an error
Loading. Please wait.

The House Always Wins Tab

version 1
version 1

Whole song

Interactive

43 views 9 this week
no commentswrite comment
1 2 3 4 5
3 more votes to show rating
add to favorites
launch autoscroll
font size
0
reset
how to read this tab
guitar tuner
Autoscroll
slow
fast
+/-
esc
set tempo
stop
Help us to improve Ultimate-Guitar.com Take our survey!
×
Author
Difficulty
Tuning
intermediate
C G C F A D
[The House Always Wins]
[Music Video]
[Stray From The Path]

Tuning: C G C F A D
Playthrough: https://www.youtube.com/watch?v=-WwF2BdWUSs

[Riff 1] - [00:00] - [00:40]
- -----------------
- -----------------
- -----------------
- -1-1-1-1-1-1-1-1-
- -5-5-5-5-5-5-5-5-
- -----------------

[Riff 2] - [00:28] - [00:40]
- -----------------------------------------------------------------
- -----3-----6---------3-----6---------3-----6---------------------
- -----6b----9b--------6b----9b--------6b----9b--------------------
- -0-------0-----0-0-------0-----0-0-------0-----0-3-------3-------
- -0-------0-----0-0-------0-----0-0-------0-----0-2-2-2-2-2-2-2-2-
- -0-------0-----0-0-------0-----0-0-------0-----0-3-3-3-3-3-3-3-3-
PM                                                   .....   .....

- -----------------------------------------------------------------
- -----3-----6---------3-----6---------3-----6---------------------
- -----6b----9b--------6b----9b--------6b----9b--------------------
- -0-------0-----0-0-------0-----0-0-------0-----0-3-------3-------
- -0-------0-----0-0-------0-----0-0-------0-----0-2-2-2-2-2-2-2-2-
- -0-------0-----0-0-------0-----0-0-------0-----0-3-3-3-3-3-3-3-3-
PM                                                   .....   .....

- -----------------------------------------------------------------
- -----3-----6---------3-----6---------3-----6---------------------
- -----6b----9b--------6b----9b--------6b----9b--------------------
- -0-------0-----0-0-------0-----0-0-------0-----0-3-------3-------
- -0-------0-----0-0-------0-----0-0-------0-----0-2-2-2-2-2-2-2-2-
- -0-------0-----0-0-------0-----0-0-------0-----0-3-3-3-3-3-3-3-3-
PM                                                   .....   .....

- -----------------------------------------------------------------
- -----3-----6---------3-----6---------3-----6---------------------
- -----6b----9b--------6b----9b--------6b----9b--------------------
- -0-------0-----0-0-------0-----0-0-------0-----0-3-3-3-3---------
- -0-------0-----0-0-------0-----0-0-------0-----0-2-2-2-2---------
- -0-------0-----0-0-------0-----0-0-------0-----0-3-3-3-3---------

[Riff 3] - [00:40] - [01:40]
- -----------------------------------------------------------------
- -----3-----6---------3-----6---------3-----6---------------------
- -----6b----9b--------6b----9b--------6b----9b--------------------
- -0-------0-----0-0-------0-----0-0-------0-----0-3-------3-------
- -0-------0-----0-0-------0-----0-0-------0-----0-2-2-2-2-2-2-2-2-
- -0-------0-----0-0-------0-----0-0-------0-----0-3-3-3-3-3-3-3-3-
PM                                                   .....   .....

- -----------------------------------------------------------------
- -----3-----6---------3-----6---------3-----6---------------------
- -----6b----9b--------6b----9b--------6b----9b--------------------
- -0-------0-----0-0-------0-----0-0-------0-----0-3-------3-------
- -0-------0-----0-0-------0-----0-0-------0-----0-2-2-2-2-2-2-2-2-
- -0-------0-----0-0-------0-----0-0-------0-----0-3-3-3-3-3-3-3-3-
PM                                                   .....   .....

- -----------------------------------------------------------------
- -----3-----6---------3-----6---------3-----6---------------------
- -----6b----9b--------6b----9b--------6b----9b--------------------
- -0-------0-----0-0-------0-----0-0-------0-----0-3-------3-------
- -0-------0-----0-0-------0-----0-0-------0-----0-2-2-2-2-2-2-2-2-
- -0-------0-----0-0-------0-----0-0-------0-----0-3-3-3-3-3-3-3-3-
PM                                                   .....   .....

- ---------------------------------------------------------------------------------
- -----3-----6---------3-----6---------3-----6-------------------------------------
- -----6b----9b--------6b----9b--------6b----9b------------------------------------
- -0-------0-----0-0-------0-----0-0-------0-----0-3---------------1-1-1-1-1-1-1-1-
- -0-------0-----0-0-------0-----0-0-------0-----0-2-2-2-2-2-2-2-2-0-0-0-0-0-0-0-0-
- -0-------0-----0-0-------0-----0-0-------0-----0-3-3-3-3-3-3-3-3-1-1-1-1-1-1-1-1-
PM                                                   .............

[Riff 4] - [01:04] - [01:26] - [x2]
- -----------------------------------------------------------------
- -------------------------------3b--------------------------------
- -----------------3-------------3b--------------------------------
- -2---2-0-2-5-0-2---2---2---0-2-----0-2---2---0-2-3-2---2---0-2-0-
- -2---2-0-2---0-2---2---2---0-2-----0-2---2---0-2-3-2---2---0-2-0-
- -2---2-0-2---0-2---2---2---0-2-----0-2---2---0-2-3-2---2---0-2-0-

- -----------------------------------------------------------------
- -------------------------------2b--------------------------------
- -----------------2-------------2b--------------------------------
- -1---1-0-1-4-0-1---1---1---0-1-----0-1---1---0-1-0-----3---3---0-
- -1---1-0-1---0-1---1---1---0-1-----0-1---1---0-1-0-0-0-3-3-3-3-0-
- -1---1-0-1---0-1---1---1---0-1-----0-1---1---0-1-0-0-0-3-3-3-3-0-
PM                                                   ...   .   .

[Riff 1] - [01:26] - [01:36]

[Riff 5] - [01:36] - [01:37]
- -----------------
- -----------------
- -----------------
- -3-3-3-3---------
- -2-2-2-2---------
- -3-3-3-3---------

[Riff 6] - [01:37] - [02:02]
- -----------------------------------------------------------------
- -----3-----6---------3-----6---------3-----6---------------------
- -----6b----9b--------6b----9b--------6b----9b--------------------
- -0-------0-----0-0-------0-----0-0-------0-----0-3-------3-------
- -0-------0-----0-0-------0-----0-0-------0-----0-2-2-2-2-2-2-2-2-
- -0-------0-----0-0-------0-----0-0-------0-----0-3-3-3-3-3-3-3-3-
PM                                                   .....   .....

- -----------------------------------------------------------------
- -----3-----6---------3-----6---------3-----6---------------------
- -----6b----9b--------6b----9b--------6b----9b--------------------
- -0-------0-----0-0-------0-----0-0-------0-----0-3-------3-------
- -0-------0-----0-0-------0-----0-0-------0-----0-2-2-2-2-2-2-2-2-
- -0-------0-----0-0-------0-----0-0-------0-----0-3-3-3-3-3-3-3-3-
PM                                                   .....   .....

- -----------------------------------------------------------------
- -----3-----6---------3-----6---------3-----6---------------------
- -----6b----9b--------6b----9b--------6b----9b--------------------
- -0-------0-----0-0-------0-----0-0-------0-----0-3-------3-------
- -0-------0-----0-0-------0-----0-0-------0-----0-2-2-2-2-2-2-2-2-
- -0-------0-----0-0-------0-----0-0-------0-----0-3-3-3-3-3-3-3-3-
PM                                                   .....   .....

- ---------------------------------------------------------------------------------
- -----3-----6---------3-----6---------3-----6-------------------------------------
- -----6b----9b--------6b----9b--------6b----9b------------------------------------
- -0-------0-----0-0-------0-----0-0-------0-----0-3-------------------3-----5---8-
- -0-------0-----0-0-------0-----0-0-------0-----0-2-2-2-2-2-2-2-2-----------------
- -0-------0-----0-0-------0-----0-0-------0-----0-3-3-3-3-3-3-3-3-0-2---2/4---5---
PM                                                   .............

[Riff 4] - [02:02] - [02:24] - [x2]

[Riff 7] - [02:02] - [02:47]
   L T      T    T      T    T        T      T    T      T    T
- -------------------------------------------------------------------
- -------------------------------------------------------------------
- -3-17p3v--15p3-17p3v--17p3-19p3v----17p3v--15p3-17p3v--17p3-19p3v--
- -------------------------------------------------------------------
- -------------------------------------------------------------------
- -------------------------------------------------------------------

   L T      T    T      T    T        T      T    T      T    T
- -------------------------------------------------------------------
- -------------------------------------------------------------------
- -3-17p3v--15p3-17p3v--17p3-19p3v----17p3v--15p3-17p3v--17p3-19p3v--
- -------------------------------------------------------------------
- -------------------------------------------------------------------
- -------------------------------------------------------------------

   L T      T    T      T    T        T      T    T      T    T
- -------------------------------------------------------------------
- -------------------------------------------------------------------
- -3-17p3v--15p3-17p3v--17p3-19p3v----17p3v--15p3-17p3v--17p3-19p3v--
- -------------------------------------------------------------------
- -------------------------------------------------------------------
- -------------------------------------------------------------------

   L T      T    T      T    T        T      T    T
- -------------------------------------------------------------------
- -------------------------------------------------------------------
- -3-17p3v--15p3-17p3v--17p3-19p3v----17p3v--15p3-17p3---------------
- -------------------------------------------------------------------
- -------------------------------------------------------------------
- -------------------------------------------------------------------

[Riff 8] - [02:47] - [03:09]                               L T
- ------------------------------------------------------------------
- ------------------------------------------------------------------
- ---------------------------------------------------------3-17p3v--
- -0w\-------0---0-0---------0---0-0---------0---0-0---0------------
- -0w\-------0---0-0---------0---0-0---------0---0-0---0------------
- -0w\-------0---0-0---------0---0-0---------0---0-0---0------------

                                                           L T
- ------------------------------------------------------------------
- ------------------------------------------------------------------
- ---------------------------------------------------------3-17p3v--
- -0w\-------0---0-0---------0---0-0---------0---0-0---0------------
- -0w\-------0---0-0---------0---0-0---------0---0-0---0------------
- -0w\-------0---0-0---------0---0-0---------0---0-0---0------------

                                                           L T
- ------------------------------------------------------------------
- ------------------------------------------------------------------
- ---------------------------------------------------------3-17p3v--
- -0w\-------0---0-0---------0---0-0---------0---0-0---0------------
- -0w\-------0---0-0---------0---0-0---------0---0-0---0------------
- -0w\-------0---0-0---------0---0-0---------0---0-0---0------------

- -----------------------------------------------------------------
- -----------------------------------------------------------------
- -----------------------------------------------------------------
- -0w\-------0---0-0---------0---0-0---------0---0-3-------3-------
- -0w\-------0---0-0---------0---0-0---------0---0-2-2-2-2-2-2-2-2-
- -0w\-------0---0-0---------0---0-0---------0---0-3-3-3-3-3-3-3-3-
PM                                                   .....   .....

[Riff 9] - [03:09] - [03:38]
- -----------------------------------------------------------------
- -----3-----6---------3-----6---------3-----6---------------------
- -----6b----9b--------6b----9b--------6b----9b--------------------
- -0-------0-----0-0-------0-----0-0-------0-----0-----------------
- -0-------0-----0-0-------0-----0-0-------0-----0-----------------
- -0-------0-----0-0-------0-----0-0-------0-----0-----------------

- -----------------------------------------------------------------
- -----3-----6---------3-----6---------3-----6---------------------
- -----6b----9b--------6b----9b--------6b----9b--------------------
- -0-------0-----0-0-------0-----0-0-------0-----0-3-------3-------
- -0-------0-----0-0-------0-----0-0-------0-----0-2-2-2-2-2-2-2-2-
- -0-------0-----0-0-------0-----0-0-------0-----0-3-3-3-3-3-3-3-3-
PM                                                   .....   .....

- -----------------------------------------------------------------
- -----3-----6---------3-----6---------3-----6---------------------
- -----6b----9b--------6b----9b--------6b----9b--------------------
- -0-------0-----0-0-------0-----0-0-------0-----0-3-------3-------
- -0-------0-----0-0-------0-----0-0-------0-----0-2-2-2-2-2-2-2-2-
- -0-------0-----0-0-------0-----0-0-------0-----0-3-3-3-3-3-3-3-3-
PM                                                   .....   .....

- -----------------------------------------------------------------
- -----3-----6---------3-----6---------3-----6---------------------
- -----6b----9b--------6b----9b--------6b----9b--------------------
- -0-------0-----0-0-------0-----0-0-------0-----0-3-------3-------
- -0-------0-----0-0-------0-----0-0-------0-----0-2-2-2-2-2-2-2-2-
- -0-------0-----0-0-------0-----0-0-------0-----0-3-3-3-3-3-3-3-3-
PM                                                   .....   .....

- -----------------------------------------------------------------
- -----3-----6---------3-----6---------3-----6---------------------
- -----6b----9b--------6b----9b--------6b----9b--------------------
- -0-------0-----0-0-------0-----0-0-------0-----0-3-------3-------
- -0-------0-----0-0-------0-----0-0-------0-----0-2-2-2-2-2-2-2-2-
- -0-------0-----0-0-------0-----0-0-------0-----0-3-3-3-3-3-3-3-3-
PM                                                   .....   .....

[Symbols]

PM... Palm Mute notes with (...) under them
AP... Alternate Pick notes with (...) under them
h     Hammer On
p     Pull Off
[ ]   Harmonic
/     Slide Up
\     Slide Down
x     Dead Note
b     Bend
hb    Hold Bend
p     Pre-Bend
r     Release Bend
(x )  Play Notes x amount of times
~     Let Ring
/ 3 \ Notes are triplets (3 notes in the space of two)
w\    Whammy Bar Down
w/    Whammy Bar Up
T     Right Hand Tap
L     Left Hand Tap

:)
Suggest correction
Give kudos to tab author, rate the tab!
1 2 3 4 5
comments
print report bad tab
guest
You may want to rate the tab now too:
select rating
Wanna post a correction for this tab? Suggest correction