Oops, an error
Loading. Please wait.

Existentialism On Prom Night bass

version 1
version 1

Whole song

1,436 views 1 this week
no commentswrite comment
1 2 3 4 5
2 more votes to show rating
add to favorites
×
Save as Personal and add changes to this tab that will be seen only by you. Learn more ›
×
You can save this tab as Personal to edit and correct it or add notes. All changes will be seen only by you. Learn more »
launch autoscroll
font size
0
reset
guitar tuner
edit
Autoscroll
slow
fast
+/-
esc
set tempo
stop
Artist: Straylight Run
Bassist: Shaun Cooper
Song: Existentialism On Prom Night
Album: Straylight Run
Tabbed By: Lewis [lewis_mason21@hotmail.com]

I'm quite surprised no Bass Tab has been done for this song yet.  Well, it's relatively 
and follows the bass guide of the piano.  The timing is 6/8, so it's played in threes, 
that makes sense.

[Tuning: Drop D - D,A,D,G]

Key:
\: Slide Down

Intro: [Note: No Bass, but this is the Piano for Bass if you want it]
G|-------2-----------2-----------2-----------1-----|
D|-----4---4-------0---0-------2---2-------2---2---|
A|---4-------4---0-------0---2-------2---2-------2-|
D|-4-----------0-----------2-----------2-----------| [x4]

Verse One: [Note: Slide on the first time only]
("When the sun came up" ... "Sprawled across the bed")
G|-------------------------------|
D|-------------------------------|
A|-------------------------------|
D|-12\444444-000000-222222222222-| [x2]

Chorus One:
("And we" ... "Were dreaming")
G|------------------------------------------------------|
D|------------------------------------------------------|
A|---------------------------000000000000-00000000000---|
D|-000000000000-000000000000-------------------------7\-| [x1]

Verse Two:
("There are moments when" ... "Vulnerable, all knowing")
G|----------------------------|
D|----------------------------|
A|----------------------------|
D|-444444-000000-222222222222-| [x4]

Chorus Two:
("Sing like you think no one's listening" ... "Just a little bit, you would")
G|----------------------------------------------------|
D|----------------------------------------------------|
A|---------------------------000000000000-00000000000-|
D|-000000000000-000000000000--------------------------| [x2]

Verse Three:
("Sing me something soft" ... "Right in front of us")
G|----------------------------|
D|----------------------------|
A|----------------------------|
D|-444444-000000-222222222222-| [x6]

Chorus Three:
("Sing like you think no one's listening" ... "Just a little bit, you would")
G|----------------------------------------------------|
D|----------------------------------------------------|
A|---------------------------000000000000-00000000000-|
D|-000000000000-000000000000--------------------------| [x2]

Outro:
("Sing me something soft" ... "Sing me anything")
G|---REST---|
D|---REST---|
A|---REST---|
D|---REST---|

            
            
Suggest correction
Creating personal tab
Creating personal tab
You can edit any tab online and save it as your Personal.

You can edit, replace or remove any tab part or add personal notes – all changes will be seen only by you.

Personal tabs can be accessed anytime from any device, even offline.
Learn more »
Give kudos to tab author, rate the tab!
1 2 3 4 5
comments
print report bad tab
guest
You may want to rate the tab now too:
select rating
Wanna post a correction for this tab? Suggest correction