Oops, an error
Loading. Please wait.

I Pray Chords

1,824 views 1 this week
no commentswrite comment
1 2 3 4 5
3 more votes to show rating
add to favorites
launch autoscroll
font size
0
reset
transpose
0
reset
simplify chords
display chords
guitar tuner
Autoscroll
slow
fast
+/-
esc
set tempo
stop
Help us to improve Ultimate-Guitar.com Take our survey!
×
Intro:
   E      E/Eb    C#m     G#m              
e|-------7-------0-------4-------0-------------------------------|
B|-------7-------0-------5-------0-------------------------------|
G|-9---9-9-4---4-4-6---6-6-4---4-4-------------------------------|
D|-9-9---9-4-4---4-6-6---6-6-6---6-------------------------------|
A|-7-------6-------4-------6-------------------------------------|
E|---------------------------------------------------------------| 
  F#m   G#m    A    G#m   F#m      B
e|-----0-----0-----0-----0-------0-0-----------------------------|
B|-----0-----0-----0-----0-------0-0-----------------------------|
G|-2---2-4---4-2---2-4---4-2---2-2-4-----------------------------|
D|-4-4---6-6---2-2---6-6---4-4---4-4-----------------------------|
A|-4-----6-----0-----6-----4-------2-----------------------------|
E|---------------------------------------------------------------|
Verse 1:
   E E/Eb C#m G#m  A  G#m F#m  B   E E/Eb C#m G#m  A  G#m F#m  B
e|-0---0---4---0---0---0---0---0---0---0---4---0---0---0---0---0-|
B|-0---0---5---0---0---0---0---0---0---0---5---0---0---0---0---0-|
G|-1---4---6---4---2---4---2---4---1---4---6---4---2---4---2---4-|
D|-2---4---6---6---2---6---4---4---2---4---6---6---2---6---4---4-|
A|-2---6---4---6---0---6---4---2---2---6---4---6---0---6---4---2-|
E|-0-------------------------------0-----------------------------|
Chorus 1:
   E  G#m  A  G#m F#m G#m  A   B
e|-0---0---0---0---0---0---0---0---------------------------------|
B|-0---0---0---0---0---0---0---0---------------------------------|
G|-1---4---2---4---2---4---2---4---------------------------------|
D|-2---6---2---6---4---6---2---4---------------------------------|
A|-2---6---0---6---4---6---0---2---------------------------------|
E|-0-------------------------------------------------------------|
   E  G#m  A  G#m F#m G#m  A  G#m F#m  B   E
e|-0---0---0---0---0---0---0---0---0---0---0---------------------|
B|-0---0---0---0---0---0---0---0---0---0---0---------------------|
G|-1---4---2---4---2---4---2---4---2---4---1---------------------|
D|-2---6---2---6---4---6---2---6---4---4---2---------------------|
A|-2---6---0---6---4---6---0---6---4---2---2---------------------|
E|-0---------------------------------------0---------------------|
Interlude:
  Esus E  Esus
e|-0---0---0-----------------------------------------------------|
B|-0---0---0-----------------------------------------------------|
G|-2---1---2-----------------------------------------------------|
D|-2---2---2-----------------------------------------------------|
A|-2---2---2-----------------------------------------------------|
E|-0---0---0-----------------------------------------------------|
Verse 2:
   E E/Eb C#m G#m  A  G#m F#m  B   E E/Eb C#m G#m  A  G#m F#m  B
e|-0---0---0---0---0---0---0---0---0---0---0---0---0---0---0---0-|
B|-0---0---0---0---0---0---0---0---0---0---0---0---0---0---0---0-|
G|-9---8---6---4---2---4---2---4---9---8---6---4---2---4---2---4-|
D|-7---9---6---6---2---6---4---4---9---9---6---6---2---6---4---4-|
A|-7---6---4---6---0---6---4---2---7---6---4---6---0---6---4---2-|
E|---------------------------------------------------------------|
Chorus 1
Chorus 2:
   E  G#m  A  G#m F#m G#m  A   B
e|-0---0---0---0---0---0---0---0---------------------------------|
B|-0---0---0---0---0---0---0---0---------------------------------|
G|-1---4---2---4---2---4---2---4---------------------------------|
D|-2---6---2---6---4---6---2---4---------------------------------|
A|-2---6---0---6---4---6---0---2---------------------------------|
E|-0-------------------------------------------------------------|
   E  G#m  A  G#m F#m G#m  A  G#m F#m G#m  A  G#m F#m  B   E
e|-0---0---0---0---0---0---0---0---0---0---0---0---0---0---0-----|
B|-0---0---0---0---0---0---0---0---0---0---0---0---0---0---0-----|
G|-1---4---2---4---2---4---2---4---2---4---2---4---2---4---1-----|
D|-2---6---2---6---4---6---2---6---4---6---2---6---4---4---2-----|
A|-2---6---0---6---4---6---0---6---4---6---0---6---4---2---2-----|
E|-0-------------------------------------------------------0-----|
Outro:
  Esus E
e|-0---0---------------------------------------------------------|
B|-0---0---------------------------------------------------------|
G|-2---1---------------------------------------------------------|
D|-2---2---------------------------------------------------------|
A|-2---2---------------------------------------------------------|
E|-0---0---------------------------------------------------------|
Suggest correction
Give kudos to tab author, rate the tab!
1 2 3 4 5
comments
print report bad tab
guest
You may want to rate the tab now too:
select rating
Wanna post a correction for this tab? Suggest correction