Oops, an error
Loading. Please wait.

Back To The World Tab

version 2
version 2

Whole song

1,730 views 1 this week
no commentswrite comment
1 2 3 4 5
please rate
add to favorites
launch autoscroll
font size
0
reset
how to read this tab
guitar tuner
Tab Pro tools
  • play this tab
  • loop segment
  • change instrument
  • show fretboard
  • metronome
×
Best way to learn
"Back To The World"
Autoscroll
slow
fast
+/-
esc
set tempo
stop
Contributor
Difficulty
novice
Street Dogs
Back to the World

Intro
Guitar #1 :
-------|
-------|
-10----|
-10----| x1
-8-----|
-------|

Intro #2/Chorus
Guitar # 1:
-------------------|
-------------------|
--------8----------|
3---6---8---8------| x2
3---6---6---8------|
1---4-------6------|

Bridge
Guitar #1
----------|
-3-4-4-4--|
----------|
----------| x16
----------|
----------|

Bridge (Cont.)
Guitar #2
---------------------------------------------------|
---------------------------------------------------|
-8-8-----------------------------------------------|
-8-8---8-8---6-6---3-3---6-6---3-3---8-8-8---6-6---| x2
-6-6---8-8---6-6---3-3---6-6---3-3---8-8-8---6-6---|
-------6-6---4-4---1-1---4-4---1-1---6-6-6---4-4---|


Verse
-----------------------------------------|
-----------------------------------------|
-8---------------------------------------|
-8---8---6---3---6---3---8-8-8---6-6-----| x2
-6---8---6---3---6---3---8-8-8---6-6-----|
-----6---4---1---4---1---6-6-6---4-4-----|
p.m.-------------------------------------|p.m.


Bridge # 2
-------------------------------------------------|
-------------------------------------------------|
-8-----------------------------------------------|
-8-(x16)---6---------3--------6--------8---------| x2
-6---------6-(x16)---3-(x8)---6-(x8)---8-(x16)---|
-----------4---------1--------4--------6---------|


Riff
--------------------|
-4444666688889999---|
--------------------|
--------------------| x4
--------------------|
--------------------|

SONG ORDER
Intro
Intro #2/Chorus
Bridge x2
Verse
Bridge
Verse x1
Intro #2/Chorus
Bridge x2
Verse
Intro #2/Chorus
Bridge #2 x2
Riff played over Bridge #2
Intro #2/Chorus

Questions
nickcha@verizon.net
comments
We did not receive enough feedback on this tab! Please rate:
print report bad tab
1 2 3 4 5
I want to post or [tab]
guest
You may want to rate the tab now too:
select rating
Please do not post tabs as comments. Select "correction" instead!