Oops, an error
Loading. Please wait.

Fading American Dream Tab

version 1
version 1

Intro

Whole song

871 views 1 this week
no commentswrite comment
1 2 3 4 5
please rate
add to favorites
launch autoscroll
font size
0
reset
how to read this tab
guitar tuner
Autoscroll
slow
fast
+/-
esc
set tempo
stop
Help us to improve Ultimate-Guitar.com Take our survey!
×
Author
-------------------------------------------------------------------------------
                             Fading American Dream - Street Dogs
-------------------------------------------------------------------------------
Tabbed by: jimmyzoso333
Email:jimmyzoso333@gmail.com

Tuning:E standard

e|---------------------------------------------------------------------------|
B|---------------------------------------------------------------------------|
G|---------------------------------------------------------------------------|
D|-4-4-4-4-4-4-4-4-4-4-4-4-4-4-4-4-4-4-4-4-4-4-4-4-4-4-4-4-4-4-4-4-----------|
A|-4-4-4-4-4-4-4-4-4-4-4-4-4-4-4-4-4-4-4-4-4-4-4-4-4-2-2-2-2-2-2-2-----------|
E|-2-2-2-2-2-2-2-2-2-2-2-2-2-2-2-2-2-2-2-2-2-2-2-2-2-2-2-2-2-2-2-2-----------|
   . . . . . . . . . . . . . . . . . . . . . . . .

e|---------------------------------------------------------------------------|
B|---------------------------------------------------------------------------|
G|-12-12--12-12-12s8-8--8-8-8s12-12--12-12-12s10-10--10-10-10----------------|
D|-12-12--12-12-12s8-8--8-8-8s12-12--12-12-12s10-10--10-10-10----------------|
A|-10-10--10-10-10s6-6--6-6-6s10-10--10-10-10s8--8---8--8--8-----------------|
E|---------------------------------------------------------------------------|


e|--------------------------------------------------------------------------------------|
B|--------------------------------------------------------------------------------------|
G|-12-12--12-12-12s8-8--8-8-8--10-10-12-10-7-8------------------------------------------|
D|-12-12--12-12-12s8-8--8-8-8--10-10-12-10-7-8------------------------------------------|
A|-10-10--10-10-10s6-6--6-6-6---8--8-10--8-5-6------------------------------------------|
E|--------------------------------------------------------------------------------------|
Suggest correction
Give kudos to tab author, rate the tab!
1 2 3 4 5
comments
print report bad tab
guest
You may want to rate the tab now too:
select rating
Please do not post tabs as comments. Select "correction" instead!