Oops, an error
Loading. Please wait.

Fading American Dream Tab

version 1
version 1

Whole song

983 views 1 this week
no commentswrite comment
1 2 3 4 5
please rate
add to favorites
launch autoscroll
font size
0
reset
how to read this tab
guitar tuner
Tab Pro tools
  • play this tab
  • loop segment
  • change instrument
  • show fretboard
  • metronome
×
Best way to learn
"Fading American Dream"
Autoscroll
slow
fast
+/-
esc
set tempo
stop
Contributor
Difficulty
Tuning
novice
D# G# C# F# A# D#
intro
guitar 1 and 2
e|-------------------------------------------------------------------------|
B|-------------------------------------------------------------------------|
G|-------------------------------------------------------------------------|
D|-7-----------------------------------------------------------------------|
A|-7-( x 30 )--------------------------------------------------------------|
E|-5-----------------------------------------------------------------------|

intro part 2
guitar 1
e|-------------------------------------------------------------------------|
B|-9-9-9^-9p7------7-9-9-9^-9p7---7---7---7---7---9-9-9^-9p7---------------|
G|------------9-9---------------9^--9^--9^--9^---------------9-9-----------|
D|-------------------------------------------------------------------------|
A|-------------------------------------------------------------------------|
E|-------------------------------------------------------------------------|

e|-7-7-7-9-7---7-----------------------------------------------------------|
B|-----------9---9-9-9-----------------------------------------------------|
G|-------------------------------------------------------------------------|
D|-------------------------------------------------------------------------|
A|-------------------------------------------------------------------------|
E|-------------------------------------------------------------------------|

guitar 2
e|-------------------------------------------------------------------------|
B|-------------------------------------------------------------------------|
G|-9-9~------9-9~------9-9~------------------------------------------------|
D|-9-9~-7-7~-9-9~-9-9~-9-9~--7-7~--9-9--7-7--9-9-9-------------------------|
A|-7-7~-7-7~-7-7~-9-9~-7-7~--7-7~--9-9--7-7--9-9-9-------------------------|
E|------5-5~------7-7~-------5-5~--7-7--5-5--7-7-7-------------------------|

verse
guitar 1 and 2
e|-------------------------------------------------------------------------|
B|-------------------------------------------------------------------------|
G|-9-------------9-------------9----------------------9-9------------------|
D|-9-(x8)-7------9-(x8)-9------9-(x8)-7------9-9-7-7--9-9------------------|
A|-7------7-(x8)-7------9-(x8)-7------7-(x8)-9-9-7-7--7-7------------------|
E|--------5-------------7-------------5------7-7-5-5-----------------------|
p.m.........................................

Verse Pt 2
guitar 1

e|-------------------------------------------------------------------------|
B|-------------------------------------------------------------------------|
G|-9-9~----------9-9~---------9-9~--------------------9-9-9----------------|
D|-9-9~---7-7~---9-9~--9-9~---9-9~--7-7~----9-9--7-7--9-9-9----------------|
A|-7-7~---7-7~---7-7~--9-9~---7-7~--7-7~----9-9--7-7--7-7-7----------------|
E|--------5-5~---------7-7~---------5-5~----7-7--5-5-----------------------|

guitar 2

e|-------------------------------------------------------------------------|
B|-------------------------------------------------------------------------|
G|-9-------------9-------------9----------------------9-9-9----------------|
D|-9-(x8)-7------9-(x8)-9------9-(x8)-7------9-9-7-7--9-9-9----------------|
A|-7------7-(x8)-7------9-(x8)-7------7-(x8)-9-9-7-7--7-7-9----------------|
E|--------5-------------7-------------5------7-7-5-5-----------------------|
p.m.........................................

pre chorus

e|-------------------------------------------------------------------------|
B|-------------------------------------------------------------------------|
G|---------9---------7--7--7--7----------9-----------7--7--7--7------------|
D|-7-------9-(x12)-9^-9^-9^-9^---7-------9-(x12)---9^-9^-^9^-9^------------|
A|-7-(x12)-7---------------------7-(x12)-7---------------------------------|
E|-5-----------------------------5-----------------------------------------|

Chorus
guitar 1
e|-------------------------------------------------------------------------|
B|-9-9-9^-9p7------7-9-9-9^-9p7---7---7---7---7---9-9-9^-9p7---------------|
G|------------9-9---------------9^--9^--9^--9^---------------9-9-----------|
D|-------------------------------------------------------------------------|
A|-------------------------------------------------------------------------|
E|-------------------------------------------------------------------------|

e|-7-7-7-9-7---7-----------------------------------------------------------|
B|-----------9---9-9-9-----------------------------------------------------|
G|-------------------------------------------------------------------------|
D|-------------------------------------------------------------------------|
A|-------------------------------------------------------------------------|
E|-------------------------------------------------------------------------|

guitar 2
e|-------------------------------------------------------------------------|
B|-------------------------------------------------------------------------|
G|-9-9~------9-9~------9-9~------------------------------------------------|
D|-9-9~-7-7~-9-9~-9-9~-9-9~--7-7~--9-9--7-7--9-9-9-------------------------|
A|-7-7~-7-7~-7-7~-9-9~-7-7~--7-7~--9-9--7-7--9-9-9-------------------------|
E|------5-5~------7-7~-------5-5~--7-7--5-5--7-7-7-------------------------|

bridge/solo

e|----------------------------|
B|-5--------------------------|
G|-6-------------9------------|     x2
D|-6-(x8)-7-(x8)-9-(x8)-------|
A|-4------7------7------------| 
E|--------5-------------------|         
comments
We did not receive enough feedback on this tab! Please rate:
print report bad tab
1 2 3 4 5
I want to post or [tab]
guest
You may want to rate the tab now too:
select rating
Please do not post tabs as comments. Select "correction" instead!