Oops, an error
Loading. Please wait.

Fading American Dream Tab

version 2
version 2

Whole song

498 views 1 this week
no commentswrite comment
1 2 3 4 5
please rate
add to favorites
launch autoscroll
font size
0
reset
how to read this tab
guitar tuner
Tab Pro tools
  • play this tab
  • loop segment
  • change instrument
  • show fretboard
  • metronome
×
Best way to learn
"Fading American Dream"
Autoscroll
slow
fast
+/-
esc
set tempo
stop
Contributor
*Attention*
I did not make this tab, 'flarppy' wrote it down, but I changed it a bit so that you 
have to tune your guitar down half a step (which I think is very annoying)

So I don't take the credit for this.

           STREET DOGS    -    FADING AMERICAN DREAM



intro part 1
e|-------------------------------------------------------------------------|
B|-------------------------------------------------------------------------|
G|-------------------------------------------------------------------------|
D|-6-----------------------------------------------------------------------|
A|-6-( x 30 )--------------------------------------------------------------|
E|-4-----------------------------------------------------------------------|

intro part 2
guitar 1
e|-------------------------------------------------------------------------|
B|-8-8-8^-8p6------8-8-8-8^-8p6---6---6---6---6---8-8-8^-8p6---------------|
G|------------8-8---------------8^--8^--8^--8^---------------8-8-----------|
D|-------------------------------------------------------------------------|
A|-------------------------------------------------------------------------|
E|-------------------------------------------------------------------------|

e|-------------------------------------------------------------------------|
B|-6-6-6-8-6---------------------------------------------------------------|
G|-------------6-6-6-------------------------------------------------------|
D|-------------------------------------------------------------------------|
A|-------------------------------------------------------------------------|
E|-------------------------------------------------------------------------|

guitar 2
e|-------------------------------------------------------------------------|
B|-------------------------------------------------------------------------|
G|-8-8~------8-8~------8-8~------------------------------------------------|
D|-8-8~-6-6~-8-8~-8-8~-8-8~--6-6~--8-8--6-6--8-8-8-------------------------|
A|-6-6~-6-6~-6-6~-8-8~-6-6~--6-6~--8-8--6-6--8-8-8-------------------------|
E|------4-4~------6-6~-------4-4~--6-6--4-4--6-6-6-------------------------|

verse
guitar 1 and 2
e|-------------------------------------------------------------------------|
B|-------------------------------------------------------------------------|
G|-8-------------8-------------8----------------------8-8------------------|
D|-8-(x8)-6------8-(x8)-8------8-(x8)-6------8-8-6-6--8-8------------------|
A|-6------6-(x8)-6------8-(x8)-6------6-(x8)-8-8-6-6--6-6------------------|
E|--------4-------------6-------------4------6-6-4-4-----------------------|
p.m.........................................

Verse Pt 2
guitar 1

e|-------------------------------------------------------------------------|
B|-------------------------------------------------------------------------|
G|-8-8~----------8-8~---------8-8~--------------------8-8-8----------------|
D|-8-8~---6-6~---8-8~--8-8~---8-8~--6-6~----8-8--6-6--8-8-8----------------|
A|-6-6~---6-6~---6-6~--8-8~---6-6~--6-6~----8-8--6-6--6-6-6----------------|
E|--------4-4~---------6-6~---------4-4~----6-6--4-4-----------------------|

guitar 2

e|-------------------------------------------------------------------------|
B|-------------------------------------------------------------------------|
G|-8-------------8-------------8----------------------8-8-8----------------|
D|-8-(x8)-6------8-(x8)-8------8-(x8)-6------8-8-6-6--8-8-8----------------|
A|-6------6-(x8)-6------8-(x8)-6------6-(x8)-8-8-6-6--6-6-8----------------|
E|--------4-------------6-------------4------6-6-4-4-----------------------|
p.m.........................................

pre chorus

e|-------------------------------------------------------------------------|
B|-------------------------------------------------------------------------|
G|---------8---------6--6--6--6----------8-----------6--6--6--6------------|
D|-6-------8-(x12)-8^-8^-8^-8^---6-------8-(x12)---8^-8^-^8^-8^------------|
A|-6-(x12)-6---------------------6-(x12)-6---------------------------------|
E|-4-----------------------------4-----------------------------------------|

Chorus
guitar 1
e|-------------------------------------------------------------------------|
B|-8-8-8^-8p6------6-8-8-8^-8p6---6---6---6---6---8-8-8^-8p6---------------|
G|------------8-8---------------8^--8^--8^--8^---------------8-8-----------|
D|-------------------------------------------------------------------------|
A|-------------------------------------------------------------------------|
E|-------------------------------------------------------------------------|

e|-6-6-6-8-6---6-----------------------------------------------------------|
B|-----------8---8-8-8-----------------------------------------------------|
G|-------------------------------------------------------------------------|
D|-------------------------------------------------------------------------|
A|-------------------------------------------------------------------------|
E|-------------------------------------------------------------------------|

guitar 2
e|-------------------------------------------------------------------------|
B|-------------------------------------------------------------------------|
G|-8-8~------8-8~------8-8~------------------------------------------------|
D|-8-8~-6-6~-8-8~-8-8~-8-8~--6-6~--8-8--6-6--8-8-8-------------------------|
A|-6-6~-6-6~-6-6~-8-8~-6-6~--6-6~--8-8--6-6--8-8-8-------------------------|
E|------4-4~------6-6~-------4-4~--6-6--4-4--6-6-6-------------------------|

bridge/solo

e|----------------------------|
B|-4--------------------------|
G|-6-------------8------------|     x2
D|-6-(x8)-6-(x8)-8-(x8)-------|
A|-4------6------6------------|
E|----------------4-----------|
comments
We did not receive enough feedback on this tab! Please rate:
print report bad tab
1 2 3 4 5
I want to post or [tab]
guest
You may want to rate the tab now too:
select rating
Please do not post tabs as comments. Select "correction" instead!