Oops, an error
Loading. Please wait.

Fatty Tab

version 1
version 1

Whole song

1,690 views 3 this week
1 commentread comment
1 2 3 4 5
excellent!
x 3
add to favorites
launch autoscroll
font size
0
reset
how to read this tab
guitar tuner
Tab Pro tools
  • play this tab
  • loop segment
  • change instrument
  • show fretboard
  • metronome
×
Best way to learn
"Fatty"
Autoscroll
slow
fast
+/-
esc
set tempo
stop
Contributor
Difficulty
novice
Band: Street Dogs
Album: Fading American Dream
Song: Fatty

Intro:
Guitar #1
-------------------------------------------|
---7-8-7-5-7-5-----------------------------|
---7-7-7-7-7-7-(x3)---7--------------------|
----------------------7---(let ring out)---| x2
-------------------------------------------|
-------------------------------------------|

Guitar #2
----------------------------------------|
----------------------------------------|
---7--------------------7---------------|
---7-x8---4------5------7-x4---7--------| x2
---5------4-x8---5-x8---5------7--x4----|
----------2------3-------------5--------|


Verse:
----------------------------------------|
----------------------------------------|
---7--------------------7---------------|
---7-x8---4------5------7-x4---7--------| x2
---5------4-x8---5-x8---5------7-x4-----|
----------2------3-------------5--------|


Chorus:
----------------------------------------|
----------------------------------------|
-----------7--------------7-------------|
---7---5---7---7---5------7-x8----------| x2
---7---5---5---7---5-x8---5-------------|
---5---3-------5---3--------------------|
comments
We did not receive enough feedback on this tab! Please rate:
print report bad tab
1 2 3 4 5
1 comment total.
0 reply
ninerman13 wrote on March 13 2011, 05:10 pm

Accurate tab, but missing some parts e.g. the little solo bit that goes something like this:

E|-10-------12------|-14-14-14-15-15-15-14-14-12-12-12-14-14-14-12-12-10-|
B|-10-(x12)-10-(x4)-|-12-12-12-12-12-12-12-12-12-12-12-12-12-12-12-12-10-|
G|------------------|----------------------------------------------------|
D|------------------|----------------------------------------------------|
A|------------------|----------------------------------------------------|
E|------------------|----------------------------------------------------|

I want to post or [tab]
guest
You may want to rate the tab now too:
select rating
Please do not post tabs as comments. Select "correction" instead!