Oops, an error
Loading. Please wait.

Mean Fist Bass Tab

1,096 views 1 this week
no commentswrite comment
1 2 3 4 5
2 more votes to show rating
add to favorites
launch autoscroll
font size
0
reset
guitar tuner
Autoscroll
slow
fast
+/-
esc
set tempo
stop
Help us to improve Ultimate-Guitar.com Take our survey!
×
Author
Band: Street Dogs
Album: State Of Grace
Song: Mean fist

Please Rate

/ = slide up
\ = slide down

Have fun!

Intro (0:12)

G|------------------------------------|
D|-2/99999999-------------------------| 
A|-----------55555555--------77777777-|
E|-------------------55555555---------|

Verse (0:18)

G|----------------------------------|
D|-99999999-------------------------| 
A|---------55555555--------77777777-| x 4
E|-----------------55555555---------|

Chorus (0:39)

G|----------------------------------|
D|-5555555555555555-----------------| 
A|-----------------55555555---------| 
E|-------------------------55555555-|

G|----------------------------------|
D|-5555555555555555-----------------| 
A|-----------------55555555----5----|                                      
E|-------------------------5555--5--|

G|----------------------------------|
D|-99999999-------------------------| 
A|---------55555555--------77777777-| x2
E|-----------------55555555---------|
Verse (1:00)

G|----------------------------------|
D|-99999\---------------------------| 
A|---------55555\----------77777\---| x2
E|-----------------55555\-----------|

G|----------------------------------|
D|-9999999999999999999999999977-----| 
A|-----------------------------9977-| check this ending fill
E|----------------------------------|

G|----------------------------------|
D|-99999\---------------------------| 
A|---------55555\----------777777---| 
E|-----------------55555\-----------|

Chorus (1:21)

G|----------------------------------|
D|-5555555555555555-----------------| 
A|-----------------55555555---------|                                      
E|-------------------------55555555-|

G|----------------------------------|
D|-5555555555555555-----------------| 
A|-----------------55555555----5----|                                      
E|-------------------------5555--5--|

G|----------------------------------|
D|-99999999-------------------------| 
A|---------55555555--------77777777-| x 2
E|-----------------55555555---------|

Bridge (1:40)

G|----------------------------------|
D|-55555555--------9999997-9999997--| 
A|---------77777777-----------------|
E|----------------------------------|

G|----------------------------------|
D|-55555555-------------------------| 
A|---------77777777----------5---5--|
E|-----------------7777777777--77---|

G|---------------------------7---7--|
D|-55555555--------9999999999--99---| 
A|---------77777777-----------------|
E|----------------------------------|

G|----------------------------------|
D|-55555555--------99999999---------| 
A|---------77777777--------77777777-|
E|----------------------------------|

G|-----------------77777777----7----|
D|-------------------------7777--7--| 
A|-9999999999999999-----------------| 
E|----------------------------------|

Pause 

Pre-chorus (2:08)

G|----------------------------------|
D|-9999999999999999999999999977-----| 
A|-----------------------------9977-| 
E|----------------------------------| 

Chorus (2:13)

G|-----------------77777777---------|
D|-5555555555555555--------77777777-| 
A|----------------------------------| x3                        
E|----------------------------------|

Ending (2:29)

G|-----------------77777777----7----------|
D|-5555555555555555--------7777--7-99999\-|
A|----------------------------------------|                              
E|----------------------------------------|
Suggest correction
Give kudos to tab author, rate the tab!
1 2 3 4 5
comments
print report bad tab
guest
You may want to rate the tab now too:
select rating
Wanna post a correction for this tab? Suggest correction