Oops, an error
Loading. Please wait.

Mean Fist Tab

662 views 1 this week
no commentswrite comment
1 2 3 4 5
please rate
add to favorites
launch autoscroll
font size
0
reset
how to read this tab
guitar tuner
Autoscroll
slow
fast
+/-
esc
set tempo
stop
Help us to improve Ultimate-Guitar.com Take our survey!
×
Contributor
-------------------------------------------------------------------------------
                             MEAN FIST - Street Dogs
-------------------------------------------------------------------------------
Tabbed by:
Email:

Tuning: standard

Where not indicated, guitar 1 and guitar 2 are the same

Intro (hit once and kill):
e|---------------------------------------------------------------------------|
B|---------------------------------------------------------------------------|
G|-4---4---4---4-------------------------------------------------------------|
D|-4---4---4---4-------------------------------------------------------------|
A|-2---2---2---2-------------------------------------------------------------|
E|---------------------------------------------------------------------------|


Verse (x4):
e|---------------------------------------------------------------------------|
B|---------------------------------------------------------------------------|
G|-4-4-4-4-4---7-7-7-7-7---------------9-9-9-9-9-----------------------------|
D|-4-4-4-4-4---7-7-7-7-7---7-7-7-7-7---9-9-9-9-9-----------------------------|
A|-2-2-2-2-2---5-5-5-5-5---7-7-7-7-7---7-7-7-7-7-----------------------------|
E|-------------------------5-5-5-5-5-----------------------------------------|


Chorus (x2):
e|---------------------------------------------------------------------------|
B|---------------------------------------------------------------------------|
G|-12---------7--------------------------------------------------------------|
D|-12---------7--------7-----------------------------------------------------|
A|-10-(x16)---5-(x8)---7-----------------------------------------------------|
E|---------------------5-(x8)------------------------------------------------|


Post-chorus:
Guitar 1-
e|---------------------------------------------------------------------------|
B|---------------------------------------------------------------------------|
G|-4-4-4-4-4-4-4-4---7-7-7-7-7-7-7-7---------------------9-9-9-9-9-9-9-9-----|
D|-4-4-4-4-4-4-4-4---7-7-7-7-7-7-7-7---7-7-7-7-7-7-7-7---9-9-9-9-9-9-9-9-----|
A|-2-2-2-2-2-2-2-2---5-5-5-5-5-5-5-5---7-7-7-7-7-7-7-7---7-7-7-7-7-7-7-7-----|
E|-------------------------------------5-5-5-5-5-5-5-5-----------------------|
Guitar 2-
e|---------------------------------------------------------------------------|
B|---------------------------------------------------------------------------|
G|-11-------14--------9--------16--------------------------------------------|
D|-x--------x---------x--------x---------------------------------------------|
A|-9-(x8)---12-(x8)---7-(x8)---14-(x8)---------------------------------------|
E|---------------------------------------------------------------------------|


Verse (x4):
e|---------------------------------------------------------------------------|
B|---------------------------------------------------------------------------|
G|-4-4-4-4-4---7-7-7-7-7---------------9-9-9-9-9-----------------------------|
D|-4-4-4-4-4---7-7-7-7-7---7-7-7-7-7---9-9-9-9-9-----------------------------|
A|-2-2-2-2-2---5-5-5-5-5---7-7-7-7-7---7-7-7-7-7-----------------------------|
E|-------------------------5-5-5-5-5-----------------------------------------|


Chorus (x2):
e|---------------------------------------------------------------------------|
B|---------------------------------------------------------------------------|
G|-12---------7--------------------------------------------------------------|
D|-12---------7--------7-----------------------------------------------------|
A|-10-(x16)---5-(x8)---7-----------------------------------------------------|
E|---------------------5-(x8)------------------------------------------------|


Post-chorus:
Guitar 1-
e|---------------------------------------------------------------------------|
B|---------------------------------------------------------------------------|
G|-4-4-4-4-4-4-4-4---7-7-7-7-7-7-7-7---------------------9-9-9-9-9-9-9-9-----|
D|-4-4-4-4-4-4-4-4---7-7-7-7-7-7-7-7---7-7-7-7-7-7-7-7---9-9-9-9-9-9-9-9-----|
A|-2-2-2-2-2-2-2-2---5-5-5-5-5-5-5-5---7-7-7-7-7-7-7-7---7-7-7-7-7-7-7-7-----|
E|-------------------------------------5-5-5-5-5-5-5-5-----------------------|
Guitar 2-
e|---------------------------------------------------------------------------|
B|---------------------------------------------------------------------------|
G|-11-------14--------9--------16--------------------------------------------|
D|-x--------x---------x--------x---------------------------------------------|
A|-9-(x8)---12-(x8)---7-(x8)---14-(x8)---------------------------------------|
E|---------------------------------------------------------------------------|


Interlude (x3):
e|---------------------------------------------------------------------------|
B|---------------------------------------------------------------------------|
G|-------------------------------------4-4-4-4-4-4-4-4-----------------------|
D|-5-5-5-5-5-5-5-5---2-2-2-2-2-2-2-2---4-4-4-4-4-4-4-4---2-2-2-2-2-2-2-2-----|
A|-5-5-5-5-5-5-5-5---2-2-2-2-2-2-2-2---2-2-2-2-2-2-2-2---2-2-2-2-2-2-2-2-----|
E|-3-3-3-3-3-3-3-3---0-0-0-0-0-0-0-0---------------------0-0-0-0-0-0-0-0-----|
Then
e|---------------------------------------------------------------------------|
B|---------------------------------------------------------------------------|
G|-------------------------------------2-2-2-2-2-2-2-2---2-2-2-2--4--2-------|
D|-4-4-4-4-4-4-4-4---4-4-4-4-4-4-4-4---2-2-2-2-2-2-2-2---2-2-2-2--4--2-------|
A|-4-4-4-4-4-4-4-4---4-4-4-4-4-4-4-4---0-0-0-0-0-0-0-0---0-0-0-0--2--0-------|
E|-2-2-2-2-2-2-2-2---2-2-2-2-2-2-2-2-----------------------------------------|
Into Alternating Guitar 1 and 2 (x1) then both (x1):
e|---------------------------------------------------------------------------|
B|---------------------------------------------------------------------------|
G|-4-4-4-4-4---7-7-7-7-7---------------9-9-9-9-9-----------------------------|
D|-4-4-4-4-4---7-7-7-7-7---7-7-7-7-7---9-9-9-9-9-----------------------------|
A|-2-2-2-2-2---5-5-5-5-5---7-7-7-7-7---7-7-7-7-7-----------------------------|
E|-------------------------5-5-5-5-5-----------------------------------------|


Chorus (x4):
e|---------------------------------------------------------------------------|
B|---------------------------------------------------------------------------|
G|-12---------7--------------------------------------------------------------|
D|-12---------7--------7-----------------------------------------------------|
A|-10-(x16)---5-(x8)---7-----------------------------------------------------|
E|---------------------5-(x8)------------------------------------------------|


End on:
e|---------------------------------------------------------------------------|
B|---------------------------------------------------------------------------|
G|-4-4-4-4-4-----------------------------------------------------------------|
D|-4-4-4-4-4-----------------------------------------------------------------|
A|-2-2-2-2-2-----------------------------------------------------------------|
E|---------------------------------------------------------------------------|

| /  slide up
| \  slide down
| h  hammer-on
| p  pull-off
| ~  vibrato
| +  harmonic
| x  Mute note
===============================================================================
comments
We did not receive enough feedback on this tab! Please rate:
print report bad tab
1 2 3 4 5
I want to post or [tab]
guest
You may want to rate the tab now too:
select rating
Please do not post tabs as comments. Select "correction" instead!