Oops, an error
Loading. Please wait.

Not Without A Purpose Bass Tab

version 2
version 2

Whole song

845 views 1 this week
no commentswrite comment
1 2 3 4 5
please rate
add to favorites
launch autoscroll
font size
0
reset
guitar tuner
Autoscroll
slow
fast
+/-
esc
set tempo
stop
Help us to improve Ultimate-Guitar.com Take our survey!
×
Difficulty
intermediate
Intro/Chorus/Bridge:
----------------------------------------------------------------------------|
---------------------------22-55332200---22--22-----------------------------|
---33333333----------333333------------33--00-------3333-3333-----33--3333--|
------------11111111----------------------------1111---------3333---33------|


Verse 1:
-----------------------------------------|
-----------------------------------------|
---33333333----------00003333------------| x2
------------33333333----------11111111---|

Pre-Chorus 1:
----------------------------------------|
------------------------------55332200--|
-------------------------2255-----------|
---33333333-33333333-3333---------------|

(Chorus x2)

Verse 2&3:
-----------------------------------------|
-----------------------------------------|
---33333333----------00003333------------| x2
------------33333333----------11111111---|

Pre-Chorus 2&3:
----------------------|
------------55332200--|
-------2255-----------|
---3333---------------|

(Chorus x1)

Bridge 2:
-----------------------------------------|
-----------------------------------------|
---33333333------------------------------|
------------00000000-11111111-33333333---|


------------------------------------------|
------------22222222----------------------|
---33333333-------------------------------| x2
---------------------11111111-33333333----|

Cont.
---------------------------------|
---------------------55332200----|
----------------2255----------3r-|
---33333333-3333-----------------|

(Break)

(Chorus x2)

|---------------------------|
|---------------------------|
|---3333-----33--3333-------| 
|-------3333---33-----------|

|-------------------------|
|-------------------------|
|---3333-----33--3r-------| 
|-------3333---33---------|
Suggest correction
Give kudos to tab author, rate the tab!
1 2 3 4 5
comments
print report bad tab
guest
You may want to rate the tab now too:
select rating
Please do not post tabs as comments. Select "correction" instead!