Oops, an error
Loading. Please wait.

Tales Of Mass Deception Tab

654 views 1 this week
no commentswrite comment
1 2 3 4 5
accurate
x 1
add to favorites
launch autoscroll
font size
0
reset
how to read this tab
guitar tuner
Tab Pro tools
  • play this tab
  • loop segment
  • change instrument
  • show fretboard
  • metronome
Autoscroll
slow
fast
+/-
esc
set tempo
stop
Street Dogs
Back to the World
Tales of Mass Deception

Intro/Verse:
-----------------------------|
-----------------------------|
---4-4-4---------------------|
---4-4-4-2-2-2-6-6-6-4-4-4---|
---2-2-2-2-2-2-6-6-6-4-4-4---|
---------0-0-0-4-4-4-2-2-2---|


Before Chorus:
----------------------------|
----------------------------|
--4-4-4---------------------|
--4-4-4-2-2-2-4-4-4-4-4-4---|
--2-2-2-2-2-2-4-4-4-4-4-4---|
--------0-0-0-2-2-2-2-2-2---|


Chorus:
Guitar 1:
-----------------------------|
-----------------------------|
---------------4-4-4---------|
---6-6-6-2-2-2-4-4-4-4-4-4---|
---6-6-6-2-2-2-2-2-2-4-4-4---| x3
---4-4-4-0-0-0-------2-2-2---|

-----------------------------------------|
-----------------------------------------|
-----------------------------------------|
---6-6-6-2-2-2-4-4-4-4-4-4-4-4-4-4-4-4---|
---6-6-6-2-2-2-4-4-4-4-4-4-4-4-4-4-4-4---| x1
---4-4-4-0-0-0-2-2-2-2-2-2-2-2-2-2-2-2---|

Guitar 2:
-----------------------------|
-----------------------------|
---------9-9-9---------------|
---6-6-6-9-9-9-9-9-9-4-4-4---|
---6-6-6-7-7-7-9-9-9-4-4-4---|
---4-4-4-------7-7-7-2-2-2---|

-----------------------------------------|
-----------------------------------------|
-----------------------------------------|
---6-6-6-2-2-2-4-4-4-4-4-4-4-4-4-4-4-4---|
---6-6-6-2-2-2-4-4-4-4-4-4-4-4-4-4-4-4---| x1
---4-4-4-0-0-0-2-2-2-2-2-2-2-2-2-2-2-2---|

Bridge:
Guitar 1:
-----------------------------------------------------|
-----------------------------------------------------|
---------------4-4-4---------------------------------|
---2-2-2-4-----4-4-4-6-6-6-2-2-2-4-4-4-----2-----2---|
---2-2-2-4-----2-2-2-6-6-6-2-2-2-4-4-4-2-2---2-2-----|
---0-0-0-2-----------4-4-4-0-0-0-2-2-2---------------|

-----------------------------------------------------------------------------|
-----------------------------------------------------------------------------|
---------------4-4-4---------------------------------------------------------|
---2-2-2-4-----4-4-4-6-6-6-2-2-2-2-2-2-2-2-2-2-2-2-4-4-4-4-4-4-4-4-4-4-4-4---|
---2-2-2-4-----2-2-2-6-6-6-2-2-2-2-2-2-2-2-2-2-2-2-4-4-4-4-4-4-4-4-4-4-4-4---|
---0-0-0-2-----------4-4-4-0-0-0-0-0-0-0-0-0-0-0-0-2-2-2-2-2-2-2-2-2-2-2-2---|
                           pm............................................pm

Guitar 2:
--------------------------------------------------------|
--------------------------------------------------------|
---9-9-9-11----------------9-9-9-11-11-11-----9-----9---|
---9-9-9-11----9-9-9-6-6-6-9-9-9-11-11-11-9-9-9-9-9-9---|
---7-7-7-9-----9-9-9-6-6-6-7-7-7-9--9--9--9-9-7-9-9-7---|
---------------7-7-7-4-4-4----------------7-7---7-7-----|

-----------------------------|
-----------------------------|
---9-9-9-11------------------|
---9-9-9-11----9-9-9-6-6-6---|
---7-7-7-9-----9-9-9-6-6-6---|
---------------7-7-7-4-4-4---|

--------------------------------------------------------------|
--------------------------------------------------------------|
9-9-9-9-9-9-9-9-9-9-9-9-11-11-11-11-11-11-11-11-11-11-11-11---|
9-9-9-9-9-9-9-9-9-9-9-9-11-11-11-11-11-11-11-11-11-11-11-11---|
7-7-7-7-7-7-7-7-7-7-7-7-9--9--9--9--9--9--9--9--9--9--9--9----|
--------------------------------------------------------------|
pm.........................................................pm
comments
We did not receive enough feedback on this tab! Please rate:
print report bad tab
1 2 3 4 5
I want to post or [tab]
guest
You may want to rate the tab now too:
select rating
Please do not post tabs as comments. Select "correction" instead!