Oops, an error
Loading. Please wait.

Two Angry Kids Tab

2,125 views 3 this week
1 commentread comment
1 2 3 4 5
x 3
add to favorites
launch autoscroll
font size
0
reset
how to read this tab
guitar tuner
Autoscroll
slow
fast
+/-
esc
set tempo
stop
Help us to improve Ultimate-Guitar.com Take our survey!
×
Author
Difficulty
novice
-------------------------------------------------------------------------------
                             Two angry kids- STREET DOGS
-------------------------------------------------------------------------------
Tabbed by: Jaynapoleon
Email:jaynapoleon@gmail.com

Tuning: Standard

Okay, so here's how I'm gonna do this: There's two guitars in the song, one plays low
chords, the other plays high notes and tremolo picks. Guitar one will be the chords,
two: the high tremolo picking. Please enjoy this easy song!

Guitar one: clean
               Main riff
e||-------------------------------------------------------------------------|
B||-------------------------------------------------------------------------|
G||-------------------------------------------------------------------------|
D||---------5--5-5--5--5-5-5-/-10--10--10------12---12--12---12---10--12----|
A||---------5--5-5--5--5-5-5-/-10--10--10--x3--12---12--12---12---10--12--x6|
E||---------3--3-3--3--3-3-3-/-8---8---8-------10---10--10---10---8---10----|

Guitar two
e|-2--0--2-|-3333333333333333-/-8888888888--x3--10101010101010-108810--x6--|
B|-3--1--3-|---------------------------------------------------------------|
G|-2--0--2-|---------------------------------------------------------------|
D|----2----|---------------------------------------------------------------|
A|---------|---------------------------------------------------------------|
E|---------|---------------------------------------------------------------|

After this is played in unison with two guitars (you'll see when guitar one plays a G
guitar two picks the same G note on the high E string) we then crank up the over drive and
the same thing except guitar two just plays along with guitar one instead of tremolo 
the notes on the high string. So that riff or chord progression or whatever you want
call it repeats pretty much the whole song except for the bridge which goes like this:

e|------------------------------------------------------------------------------|
B|------------------------------------------------------------------------------|
G|------------------------------------------------------------------------------|
D|--12------10-------5----------------------------------------------------------|
A|--12--x8--10--x4---5--x4------------------------------------------------------|
E|--10------8--------3----------------------------------------------------------|
                         Repeat that 4 times and then go back into main riff

Order:
intro: Main riff, clean with guitar 2
verse: Main riff, clean with guitar 2
verse 2: Main riff with lot's of overdrive
Chorus: Main riff with lot's of overdrive
Harmonica solo-main riff with OD
Verse 3-Same as verse two
chorus-same as previous chorus
Bridge- Tons of OD
Verse 4-Same as 2 & 3
Chorus- X2

There you go. A great easy song. Now, it may not be completely accurate but just listen
the song and I'm sure you can figure out the rhythms and how many times things are
and strumming patterns etc. Keep in mind this is the only tab of this song on the net so 
better than nothing. Feel free to comment or send me any corrections. Please rate!

| /  slide up
| \  slide down
| h  hammer-on
| p  pull-off
| ~  vibrato
| +  harmonic
| x  Mute note
===============================================================================
Suggest correction
Give kudos to tab author, rate the tab!
1 2 3 4 5
comments
print report bad tab
1 comment total.
0 reply
putin12112 10 Feb 22, 2015 12:07 PM

gtp please

guest
You may want to rate the tab now too:
select rating
Wanna post a correction for this tab? Suggest correction