Oops, an error
Loading. Please wait.

You Alone Tab

version 2
version 2

Whole song

Interactive

1,376 views 1 this week
no commentswrite comment
1 2 3 4 5
please rate
add to favorites
launch autoscroll
font size
0
reset
how to read this tab
guitar tuner
Tab Pro tools
  • play this tab
  • loop segment
  • change instrument
  • show fretboard
  • metronome
×
Best way to learn
"You Alone"
Autoscroll
slow
fast
+/-
esc
set tempo
stop
Contributor
Difficulty
novice
Artist: Street Dogs
Song: "You Alone"
Album: Back to the World
Written by: Street Dogs & Nate Albert

Tabbed by: Francisco P.

UPDATE: Figured out the bridge part.

Intro
e|----------------------------------------------------|
B|----------------------------------------------------|
G|-6--6--8~~--11-11-6~~---6--6--8~~--11-11-11~~-------|
D|-6--6--8~~--11-11-6~~---6--6--8~~--11-11-11~~-------| 
A|-4--4--6~~--9--9--4~~---4--4--6~~---9--9--9~~-------|
E|----------------------------------------------------|


e|---------------------------|
B|---------------------------|
G|-13-13-13-13-13-13-13-13---| x8
D|-11-11-11-11-11-11-11-11---| 
A|---------------------------|
E|---------------------------|

Verse
                            x2
e|---------------------------|---------------------------|
B|--9^10r-6-7-9~-7-6---------|--6^7------6^7~------------|
G|--------------------8~-----|-----8-6-8-----8-6-8-8~----|
D|---------------------------|---------------------------|
A|---------------------------|---------------------------|
E|---------------------------|---------------------------|


e|--------------------------------------|----------------------------------------|
B|--------------------------------------|----------------------------------------|
G|-66666666-----------------------------|--66666666---------------11~--11-8------|
D|-66666666-66666666-88888888-44444444--|--66666666-66666666-8888-11~-------11---|
A|-44444444-66666666-88888888-44444444--|--44444444-66666666-8888--9~------------|
E|----------44444444-66666666-22222222--|-----------44444444-6666----------------|
   ........ ........ ........ ........     ........ ........ ...

                            x2
e|---------------------------|---------------------------------------------|
B|--9^10r-6-7-9~-7-6---------|--6^7------6^7~-------6--6--6---6h7p6--------|
G|--------------------8~-----|-----8-6-8-----8-6-8~--8~-8~-8~-------8-8p6--|
D|---------------------------|---------------------------------------------|
A|---------------------------|---------------------------------------------|
E|---------------------------|---------------------------------------------|

e|--------------|
B|--------------|
G|-6~-----------| 
D|-6~---6~~-----| 
A|-4~---6~~-----|
E|------4~~-----|

Chorus
e|-------------------------------------------|
B|-------------------------------------------|
G|-6-66-----------------6-66-----------------| x2
D|-6-66-6-66-44-4-6-66--6-66-6-66-88-8-4-44--| 
A|-4-44-6-66-44-4-6-66--4-44-6-66-88-8-4-44--|
E|------4-44-22-2-4-44-------4-44-66-6-2-22--|

Repeat verse

Repeat chorus

Bridge (not very sure about this part..)
e|----------------------|
B|----------------------|
G|-11~--6~--------------| x4
D|-11~--6~--6-66666666--| 
A|-9~---4~--6-66666666--|
E|----------4-44444444--|

Outro
e|-------------------------|
B|-------------------------|
G|-6--6--8~~--11-11-6~~----|
D|-6--6--8~~--11-11-6~~----| x4
A|-4--4--6~~--9--9--4~~----|
E|-------------------------|

e|-----------------------------------------------------|
B|-----------------------------------------------------|
G|-6-66--8~~--11-1111-6~~--6-66-8~--11-1111--11~--/6~--|
D|-6-66--8~~--11-1111-6~~--6-66-8~--11-1111--11~--/6~--|
A|-4-44--6~~--9---9-9-4~~--4-44-6~---9--9-9---9~--/4~--|
E|-----------------------------------------------------|

well, that's it.!

if you find any mistakes please tell me so in the comments.!

y que viva Venezuela no jodaa!
comments
We did not receive enough feedback on this tab! Please rate:
print report bad tab
1 2 3 4 5
I want to post or [tab]
guest
You may want to rate the tab now too:
select rating
Please do not post tabs as comments. Select "correction" instead!