Oops, an error
Loading. Please wait.

Pastor Of Muppets tab

40 views 1 this week
1 commentread comment
1 2 3 4 5
3 more votes to show rating
add to favorites
×
Save as Personal and add changes to this tab that will be seen only by you. Learn more ›
×
You can save this tab as Personal to edit and correct it or add notes. All changes will be seen only by you. Learn more »
launch autoscroll
font size
0
reset
how to read this tab
guitar tuner
edit
Autoscroll
slow
fast
+/-
esc
set tempo
stop
[Intro]
E|-----------------------------------------------|
B|-----------------------------------------------|
G|-11---11-11h12-11----6--6-6h7-6----4--4-4h5-4--|
D|-12---12-12----12----7--7-7---7----5--5-5---5--|
A|-----------------------------------------------|
E|-10---10-10----10----5--5-5---5----3--3-3---3--|

(This goes on throughout the entire beginning part)

[Middle part 1]
E|--------------------------------------------------------------------------|
B|-----------------------------------12---------------------------------12--|
G|-11-11--11-11--11--12-11--------------------11----11--12-11---------------|
D|-------------------------12-9h10p9-------12----12-----------12-9h10p9-----|
A|-9--9---9--9---9----------------------10----------------------------------|
E|--------------------------------------------------------------------------|

(Repeat the last half 4 times and then play it from the power chord again, this goes on twice)

[Middle part 2]
E|--------------------------------------------|
B|--------------------------------------------|
G|-11--11-11---11-11-11-11---11-11---14-14-14-|
D|-12--12-12---12-12-12-12---12-12---14-14-14-|
A|-10--10-10---10-10-10-10---10-10---12-12-12-|
E|--------------------------------------------|

[Middle part 3]
E|--------------------------------|
B|--------------------------------|
G|--------------------------------|
D|-5--5-5---5-5-5-5---5-5---7-7-7-|
A|-5--5-5---5-5-5-5---5-5---7-7-7-|
E|-3--3-3---3-3-3-3---3-3---5-5-5-|

(End it with a G power chord)

[Outro]
E|-----------------------------------------|
B|-7p0---------7p0---------7p0-------------|
G|-----7p0---------7p0---------7p0-----7h9-|
D|---------7p0---------7p0---------7h9-----|
A|-----------------------------------------|
E|-----------------------------------------|

(End with a 7 on the G string)


************************************

| h  Hammer-on
| p  Pull-off

************************************

            
            
Suggest correction
Creating personal tab
Creating personal tab
You can edit any tab online and save it as your Personal.

You can edit, replace or remove any tab part or add personal notes – all changes will be seen only by you.

Personal tabs can be accessed anytime from any device, even offline.
Learn more »
Give kudos to tab author, rate the tab!
1 2 3 4 5
comments
print report bad tab
1 comment total.
0 reply
KaBaaj 53 Jul 19, 2017 12:56 AM

I forgot to add another middle part, but it's just power chords after middle part 1. The root notes are 12th then 14th fret on the the A string to the 10th fret on the low E string back to the 12th, then 10th then 9th fret on the A string. I'm very sorry to all you Midwest emo fans reading this, I was in a rush making this.

guest
You may want to rate the tab now too:
select rating
Wanna post a correction for this tab? Suggest correction