Oops, an error
Loading. Please wait.

100 Little Curses tab

version 1
version 1

Whole song

Interactive

5,845 views 1 this week
5 commentsread comments
1 2 3 4 5
x 5
add to favorites
×
Save as Personal and add changes to this tab that will be seen only by you. Learn more ›
×
You can save this tab as Personal to edit and correct it or add notes. All changes will be seen only by you. Learn more »
launch autoscroll
font size
0
reset
how to read this tab
guitar tuner
edit
Autoscroll
slow
fast
+/-
esc
set tempo
stop
Author
Here is a tab for the song “100 Little Curses” by Tom Morello’s new side project: Street
Social Club.
It is a fairly simple song, and can get pretty repetitive, but is a cool song
I’ve tabbed out each riff of the song and taken a stab at the solo. Enjoy!

Intro - Natural Harmonics

E|---------------------------------------------------------|
B|---------------------------------------------------------|
G|---------------------------------------------------------|
D|---------12*-----------7*-----------5*-----------7*------|
A|-----12*-----12*----7*-----7*----5*-----5*----7*-----7*--|
E|--12*------------7*-----------5*-----------7*------------|

Chorus - Only play second part in the intro, when it’s the real chorus only play the
part repeatedly
E|------------------|------------------------------|
B|------------------|------------------------------|
G|----------7~------|----------7~--9-9-9-9-9-9-9-9-|
D|--2~--5~--7~--2~--|--2~--5~--7~--9-9-9-9-9-9-9-9-|
A|--2~--5~--5~--2~--|--2~--5~--5~--7-7-7-7-7-7-7-7-|
E|--0~--3~------0~--|--0~--3~------0-0-0-0-0-0-0-0-|

Verse Riff

E|-------------------------|
B|-------------------------|
G|-------------------------|
D|-----------5h7-----------|
A|-7---5h7-x-----5h7-----5-|
E|---0----------------5h7--|

Solo - I read in an interview with Tom Morello about the album, and he said that he
this solo with the whammy pedal set to an octave below, and pressed down, then rocking his
and using his toggle switch to emulate the notes. Classic Tom Morello style. So here is 
I’ve figured out of it:

Lead in with sliding natural harmonics right before
E|-12--10-12-15-15-15-12~-10-12-10-17b-15~-|
B|-----------------------------------------|
G|-----------------------------------------|
D|-----------------------------------------|
A|-----------------------------------------|
E|-----------------------------------------|

E|-12--10-12-15-15-15-22-21-22-21-22-21-22~|
B|-----------------------------------------|
G|-----------------------------------------|
D|-----------------------------------------|
A|-----------------------------------------|
E|-----------------------------------------|

E|-12-12-0-10~-10-0-9-9-0-7~--12-12-0-10~-10-0-9-9-0-15~-|
B|-------------------------------------------------------|
G|-------------------------------------------------------|
D|-------------------------------------------------------|
A|-------------------------------------------------------|
E|-------------------------------------------------------|

E|-12-12-0-10~-10-0-9-9-0-7--12-0-12-0-0-14-0-0-15-0-0-17-0-0-19|
B|--------------------------------------------------------------|
G|--------------------------------------------------------------|
D|--------------------------------------------------------------|
A|--------------------------------------------------------------|
E|--------------------------------------------------------------|

E|-19-15----19-15----19-15-22-19----22-19----22-19-|
B|-------17-------17-------------20-------20-------|
G|-------------------------------------------------|
D|-------------------------------------------------|
A|-------------------------------------------------|
E|-------------------------------------------------|

E|-17-14----17-14----17-14--|
B|-------15-------15--------|
G|--------------------------|
D|--------------------------|
A|--------------------------|
E|--------------------------|

Then this lick at the end:
E|-17-15-14----------------------------------------------------------|
B|----------17-15-13-------------------------------------------------|
G|-------------------16-14-12----------12----------------------------|
D|----------------------------16-14-12----16-14-12-------------------|
A|-------------------------------------------------15-14-12----------|
E|----------------------------------------------------------15-14-12-|


Let me know what you think! Feel free to leave any questions, comments, or corrections
email me at hildesaw88@hotmail.com

Sawyer

            
            
Suggest correction
Creating personal tab
Creating personal tab
You can edit any tab online and save it as your Personal.

You can edit, replace or remove any tab part or add personal notes – all changes will be seen only by you.

Personal tabs can be accessed anytime from any device, even offline.
Learn more »
comments
print report bad tab
5 comments total. Showing first comments.
-1 reply
hippi901 182 Jun 23, 2009 09:05 AM

pretty good... ill post my own version of this later, the intro with the harmonics isn't quite correct and the second note of the verse riff should be open low E. The solo is pretty good but definately not 100% correct.. But overall good tab!

0 reply
hildesaw 141 Jun 24, 2009 06:27 PM

Here is a quote from Tom on the harmonics:

The first single “100 Little Curses” has some strange harmonics in the intro.

Yeah, those are harmonics. That’s just a 12th, seventh, and fifth fret harmonics on that.

http://www.ultimate-guitar.com/interviews/interviews/tom_morello_i_wanted_this_to_be_the_heaviest_and_funkiest_record.html

As for the solo, I knew I wouldn't be able to get 100% but I tried!

0 reply
hildesaw 141 Jun 24, 2009 06:31 PM

Wait I just realized what an idiot i am! Haha I guess I didn't read close enough!

guest
You may want to rate the tab now too:
select rating
Wanna post a correction for this tab? Suggest correction