Oops, an error
Loading. Please wait.

100 Little Curses tab

version 2
version 2

Whole song

Interactive

2,340 views 1 this week
3 commentsread comments
1 2 3 4 5
x 3
add to favorites
×
Save as Personal and add changes to this tab that will be seen only by you. Learn more ›
×
You can save this tab as Personal to edit and correct it or add notes. All changes will be seen only by you. Learn more »
launch autoscroll
font size
0
reset
how to read this tab
guitar tuner
edit
Autoscroll
slow
fast
+/-
esc
set tempo
stop
Author
100 Little Curses                                 
STREET SWEEPER SOCIAL CLUB
TAB BY gun88
                                                           
INTRO With Natural Harmonics


       NH   NH   NH   NH  NH  NH   NH  NH  NH   NH  NH  NH    
      
|----------------------------------------------------------------------------||
|----------------------------------------------------------------------------||
|*--------------------------------------------------------------------------*||
|*------------<>12---------------<>7--------------<>5--------------<>7------*||   X4
|--------<>12------<>12------<>7-----<>7------<>5-----<>5------<>7-----<>7---||
|---<>12-----------------<>7--------------<>5--------------<>7---------------||





CHORUS


--------------------|-------------------|-------------------|-------------------|
--------------------|-------------------|-------------------|-------------------|
--------------------|-------------------|--7----------------|-------------------|
--/2----------------|--5----------------|--7----------------|--2----------------|
--/2----------------|--5----------------|--5----------------|--2----------------|
--/0----------------|--3----------------|-------------------|--0----------------|




VERSE


|------------------------------------|
|------------------------------------|
|------------------------------------|
|-----------------5h-7---------------|
|-----7-----5h-7--------5h-7------5--|
|--------0-------------------5h-7----|

        



SOLO


   Wha On, Harmonizer 1 OCT UP, Killswitch                            
  
---------------------------------------------------------------------|
---------------------------------------------------------------------|
---------------------------------------------------------------------|
---------------------------------------------------------------------|
--------------------------------------------------10--10g12-10-------|
--12--------------------------------------10--12----------------12---|


 
------------------------------|---------------------------------------|
------------------------------|---------------------------------------|
------------------------------|---------------------------------------|
------------------------------|---------------------------------11-11-|
----------------12b----10b----|----------------10--10g12-10-----------|
--12----10--12----------------|--12----10--12----------------12-------|

     
---------------------------------|
---------------------------------|
---------------------------------|
--12--11--12--11--12--11--12\----|
---------------------------------|
---------------------------------|


   Stop Killswitch - Stop Wha                      
                     
--12--------------------------0-7-10-10--9-0-7-0-3-0----------------------------
-------------------------------------------------------------------------------1
--------------------------------------------------------------------------------
--------------------------------------------------------------------------------
--------------------------------------------------------------------------------
--------------------------------------------------------------------------------


   
--12-0-7-10-10--9-0-7-0-3-0-15\----|--12-0-7-10-10--9-0-7-0-3-0--------|
-----------------------------------|----------------------------10\----|
-----------------------------------|-----------------------------------|
-----------------------------------|-----------------------------------|
-----------------------------------|-----------------------------------|
-----------------------------------|-----------------------------------|


                                        TP TP  TP  TP  TP  TP  TP  TP TP  
 
--0-0-3-0-0-5-0-0-7-0-0-10-0-0-12\--|------------------------------------|
------------------------------------|--12---------12----------12---------|
------------------------------------|-----12----------12----------12-----|
------------------------------------|---------14----------14---------14--|
------------------------------------|------------------------------------|
------------------------------------|------------------------------------|


   TP TP  TP  TP  TP  TP  TP  TP TP     TP TP  TP  TP  TP  TP  TP  TP TP  
   
------------------------------------|------------------------------------|
--15---------15----------15---------|--10---------10----------10---------|
-----16----------16----------16-----|-----11----------11----------11-----|
---------17----------17---------17--|---------12----------12---------12--|
------------------------------------|------------------------------------|
------------------------------------|------------------------------------|


   
--19-17-15-------------------------------------------------------------|
-----------19-17-15-19-17-15-------------------------------------------|
-----------------------------19-17-16-19-17-16-------------------------|
-----------------------------------------------19-17-16-19-17-16-------|
-----------------------------------------------------------------19----|
-----------------------------------------------------------------------|

 



INTRO   X4
CHORUS  X2
VERSE   X8
CHORUS  X2
VERSE   X8
CHORUS  X3
SOLO
CHORUS  X3





-----------------------
tab by gun88
_______________________


Tablature Legend
----------------
L - tied note
x - dead note
g - grace note
(n) - ghost note
> - accentuded note
NH - natural harmonic
AH - artificial harmonic
TH - tapped harmonic
SH - semi harmonic
PH - pitch harmonic
h - hammer on
p - pull off
b - bend
br - bendRelease
pb - preBend
pbr - preBendRelease
brb - bendReleaseBend
\n/ - tremolo bar dip
\n - tremolo bar dive
-/n - tremolo bar Release up
/n\ - tremolo bar inverted dip
/n - tremolo bar return
-\n - tremolo bar Release down
S - shift slide
s - legato slide
/ -  slide into from below or out of upwards
\ -  slide into from above or out of downwards
~ - vibrato
W - wide vibrato
tr - trill
TP - tremolo picking
T - tapping
S - slap
P - pop
< - fade in
^ - brush up
v - brush down

            
            
Suggest correction
Creating personal tab
Creating personal tab
You can edit any tab online and save it as your Personal.

You can edit, replace or remove any tab part or add personal notes – all changes will be seen only by you.

Personal tabs can be accessed anytime from any device, even offline.
Learn more »
Give kudos to tab author, rate the tab!
1 2 3 4 5
comments
print report bad tab
3 comments total.
+2 reply
hippi901 182 Jun 25, 2009 03:03 AM

Chorus should be:
G|------|------|-7----|------|
D|-2----|-5----|-7----|-2----|
A|-2----|-5----|-5----|-2----|
E|-0----|-3----|------|-0----|

Verse should be
D|---------5h7-----------|
A|-7---5h7-----5h7-----5-|
E|---0-------------5h7---|

+1 reply
Asweepai 81 Jun 25, 2009 04:51 PM

You forgot to write the E string harmonics, and thats the way it is live. On the album it goes 7, 5, 7, 12 and repeat.

0 reply
gun88 295 Jun 25, 2009 06:36 PM, edited on October 3 2015, 08:06 am

thanks.........its my first tab....and i was focused on the solo.............i made this tab with guitar pro....and Gpro sucks for natural harmonics....so i've opted for something similar.......stay rage-salut

guest
You may want to rate the tab now too:
select rating
Wanna post a correction for this tab? Suggest correction