Oops, an error
Loading. Please wait.

Megablast bass

version 1
version 1

Whole song

376 views 1 this week
no commentswrite comment
1 2 3 4 5
3 more votes to show rating
add to favorites
×
Save as Personal and add changes to this tab that will be seen only by you. Learn more ›
×
You can save this tab as Personal to edit and correct it or add notes. All changes will be seen only by you. Learn more »
launch autoscroll
font size
0
reset
guitar tuner
edit
Autoscroll
slow
fast
+/-
esc
set tempo
stop
MEGABLAST - Street Sweeper Social Club

TABBER: Unicorn Death
EMAIL: Albinojellyfish1@Gmail.com

Tuning: Standard

INTRO:
G|-----------------------|-----------------------|--------------------------|
D|-----------------------|-----------------------|--------------------4-----|
A|-------------------5---|-------------------5---|-------------7-7-5----5---|
E|---5-7-5-7-5-7-5-7-----|---5-7-5-7-5-7-5-7-----|---5-7-5-7-5--------------|

VERSE:
G|---------------------------0-----------------------------------------|
D|-----------0-----2-----0-------------------0-----2-----0---5-4-2-0---|
A|---2-2-2-2---2-2---2-2---2---2-2-2-2-2-2-2---2-2---2-2---2-----------|
E|---------------------------------------------------------------------|
                                                             ^ You have to
                                                               play the last
                                                               four notes 
                                                               pretty fast.

CHORUS:
G|-----------------------|-----------------------|--------------------------|
D|-----------------------|-----------------------|--------------------4-----|
A|-------------------5---|-------------------5---|-------------7-7-5----5---|
E|---5-7-5-7-5-7-5-7-----|---5-7-5-7-5-7-5-7-----|---5-7-5-7-5--------------|

YOU ARE HEREBY INVITED TO THE THIRD WORLD WAR:
G|-----------------------|
D|-----------------------|
A|-------------------5---|
E|---5-7-5-7-5-7-5-7-----|

ENDING:
G|----------|
D|----------|
A|----------|
E|---7--7---|


Probably one of SSSC's harder bass riffs. Enjoy.


LAYOUT OF SONG:
Intro
Verse
Chorus
Verse
Chorus
You Are Hereby Invited to the Third World War
Chorus
Ending
Suggest correction
Creating personal tab
Creating personal tab
You can edit any tab online and save it as your Personal.

You can edit, replace or remove any tab part or add personal notes – all changes will be seen only by you.

Personal tabs can be accessed anytime from any device, even offline.
Learn more »
Give kudos to tab author, rate the tab!
1 2 3 4 5
comments
print report bad tab
guest
You may want to rate the tab now too:
select rating
Wanna post a correction for this tab? Suggest correction