Oops, an error
Loading. Please wait.

Nobody Moves Til We Say Go tab

3,162 views 3 this week
6 commentsread comments
1 2 3 4 5
x 3
add to favorites
×
Save as Personal and add changes to this tab that will be seen only by you. Learn more ›
×
You can save this tab as Personal to edit and correct it or add notes. All changes will be seen only by you. Learn more »
launch autoscroll
font size
0
reset
how to read this tab
guitar tuner
edit
Autoscroll
slow
fast
+/-
esc
set tempo
stop
-----------------------------------------------------------------
Nobody Moves (Til We Say Go) - Street Sweeper Social Club
-----------------------------------------------------------------
Tabbed by: GI_1963
Email: azkid1963@hotmail.com

This is track 11 on their self titled album, but the live Version is
wickedly better so tabed it instead. Here is the best live recording i've
ever seen on youtube http://www.youtube.com/watch?v=h46QmRh_OQY

Tom uses his Les Paul in a standerd tuning with the low E at B so I'd
recommend you get your guitar ready for the thicker guage about .56 to .60
by asking a local music store to see they can do, because if you dont know,
dont do it! 

You might want to add something to the verse a flange or phaser
for extra depth (Tom Morello uses his phase 90 for the verse live).
sorry for my english i live in the USA, lol.

to get the tuning on a tuner its 5 flats on the low E, Thats it

Tuning: E=B drop        Low to High: B A D G b e
                  Octaves on staff   2 3 4 4 4 5


Intro/Chorus x8
Verse A x4
Verse B x4
Intro/Chorus x4
Verse A x4
Verse B x4
Intro/Chorus x4
Solo Rhythm is Intro/Chorus 4x
Intro/Chorus x4
Breakdown x16

The Intro Palm Muted in the album


Intro/Chorus

e|----------------------------|----------------------||
b|----------------------------|----------------------||
G|----------------------------|----------------------||
D|----------------------------|----------------------||
A|----------------------------|----------------------||
B|-15-15-14-14-12-12--10-12\--|--0----0----0----0----||

Kick on the Phase 90 for the Verses

Verse A

e|-------------------------------|-----------X-X--X--X-X--X--X-X-----|
b|-------------------------------|-----------X-X--X--X-X--X--X-X-----|
G|-------------------------------|-----------X-X--X--X-X--X--X-X-----|
D|-------------------------------|-----------X-X--X--X-X--X--X-X-----|
A|-------------------------------|-----------X-X--X--X-X--X--X-X-----|
B|-0-12h0--0-10--0-3p0-0-5--0-3--|--0--0-----X-X--X--X-X--X--X-X-----|

Verse B

e|-------------------------------|-----------------------------------|
b|-------------------------------|-----------------------------------|
G|-------------------------------|-----------------------------------|
D|-------------------------------|-----------------------------------|
A|-------------------------------|---------2-2-2-2-------------------|
B|-0-12h0--0-10--0-3p0-0-5--0-3--|--0--0------------3-3-3-3--5-5-5-5-|


Solo (with wah of course)  
(Completed thanks to Mandeep)
T = tremelo pick note below, not tap.
                                       X3           
e|----------------------------------T--|
b|----------------------------------12\|
G|-T---------T---------T------T---- 12\|
D|-9--x-x--x-12-11-9-7-9--x-x-9\-------|
A|-------------------------------------|
B|-------------------------------------|

e|--------------------------------------|------------------------------|
b|--------------------------------------|------------------------------|
G|-T---------T---------T----------------|-T---------T---------T-----T--|
D|-9--x-x--x-12-11-9-7-9--x-x-12-11-9-7-|-9--x-x--x-12-11-9-7-9-x-x-12\|
A|--------------------------------------|------------------------------|
B|--------------------------------------|------------------------------|




The live solo is easy he just unplugs his guitar cable, touches it to a
ground like the metal on the guitar or his hand, and messes around with his
wah.


Breakdown
                          on last time bend the last note up 1 step
e|-------------------------------|
b|-------------------------------|
G|-------------------------------|
D|-------------------------------|
A|-------------------------------|
B|-0-12h0--0-10--0-3p0-0-5--0-3--|
Suggest correction
Creating personal tab
Creating personal tab
You can edit any tab online and save it as your Personal.

You can edit, replace or remove any tab part or add personal notes – all changes will be seen only by you.

Personal tabs can be accessed anytime from any device, even offline.
Learn more »
Give kudos to tab author, rate the tab!
1 2 3 4 5
comments
print report bad tab
6 comments total. Showing first comments.
0 reply
gi_1963 73 Jul 06, 2009 09:31 PM

sorry forgot the solo was kinda easy on the album didnt see that
tremelo pick v
G-------------------------------------12\
D-----9--x-x--x-12-11-9-7-9--x-x-9-7--12\

0 reply
gi_1963 73 Jul 06, 2009 09:35 PM

ooooops only tremelo pick the 12 on the g and d

0 reply
hippi901 182 Jul 11, 2009 07:21 AM

you can always update your tab and add the solo to it! :)

guest
You may want to rate the tab now too:
select rating
Wanna post a correction for this tab? Suggest correction