Oops, an error
Loading. Please wait.

Promenade bass

version 1
version 1

Whole song

Interactive

3,383 views 1 this week
5 commentsread comments
1 2 3 4 5
x 4
add to favorites
×
Save as Personal and add changes to this tab that will be seen only by you. Learn more ›
×
You can save this tab as Personal to edit and correct it or add notes. All changes will be seen only by you. Learn more »
launch autoscroll
font size
0
reset
guitar tuner
edit
Autoscroll
slow
fast
+/-
esc
set tempo
stop
Author
Difficulty
PROMENADE
by Tom Morello's new band; Street Sweeper Social Club.

Standard Tuning: E-A-D-G

This is my favorite song off the new album. There was no bass tab for this
song at the time so here's my interpretation...

There's really only 2 parts to this song, the Intro/Verse and the Chorus.

Main Bass Line (Intro & Verses) All open E's are stacatto.

G|------|------------------------------|
D|------|----------------------------0-|
A|------|------------------------0h2---| x8 
E|-12\--|-0--0--0--0--0--0--0--0-------|
   **

** [Play it once]

It can also be played a string down. Some may find it more comfortable
to play it this way:

G|------------------------------|
D|------------------------------|
A|----------------------------5-|
E|-0--0--0--0--0--0--0--0-5h7---|

Chorus:

G|---------------------------------|
D|-2-2-2-2-2-2-2-2-------------0-0-| ----------\
A|-----------------3-3-3-3-2-2-----|            \
E|---------------------------------|             \
                                                  All this x2
G|-0-0-0-0-0-0-0-0-----------------|             /
D|-----------------0-0-0-0-0-0-0-0-|            /
A|---------------------------------| ----------/
E|---------------------------------|

Then Verse 2 only 6 times instead of 8. After that Play Chorus then 
Guitar Solo.

Guitar Solo:
Essentially the same as the Chorus but slightly different.

G|---------------------------------|
D|-2-2-2-2-2-2-2-2-----------------|
A|-----------------3-3-3-3-3-3-3-3-|
E|---------------------------------|

G|-0-0-0-0-0-0-0-0-----------------|
D|-----------------0-0-0-0-0-0-0-0-|
A|---------------------------------|
E|---------------------------------|

G|---------------------------------|
D|-2-2-2-2-2-2-2-2-----------------|
A|-----------------3-3-3-3-3-3-3-3-|
E|---------------------------------|

G|-0-0-0-0-2-0-0-0-----------------|
D|-----------------0-0-0-0-0-0-0-0-|
A|---------------------------------|
E|---------------------------------|

Then Play the Verse again 3 times and on the fourth play:

G|---------------|
D|---------------|
A|---------------|
E|-12\\\\\\\\\\\-|

Then play the Chorus for the final time, and end on an E.

Please rate and/or comment. Any questions, don't hesitate to ask me on my
profile. Anyways, I hope you learned something and I encourage you
to make your own tab if you feel that this one doesn't live up
to your standards. Enjoy!

~AfromonkeyR0X

            
            
Suggest correction
Creating personal tab
Creating personal tab
You can edit any tab online and save it as your Personal.

You can edit, replace or remove any tab part or add personal notes – all changes will be seen only by you.

Personal tabs can be accessed anytime from any device, even offline.
Learn more »
comments
print report bad tab
5 comments total. Showing first comments.
0 reply
Asweepai 81 Jul 03, 2009 08:39 AM

im not sure if its just the live version, but the chorus might be different.

watch it live

+1 reply
lucas1wj 20 Sep 18, 2009 11:40 AM

I think that the intro is slap bass, thats the only way to get that funk stacatto sound really

0 reply
lucas1wj 20 Sep 18, 2009 12:03 PM

yea nvm you just play the note then silence it with same hand

guest
You may want to rate the tab now too:
select rating
Wanna post a correction for this tab? Suggest correction