Oops, an error
Loading. Please wait.

Promenade tab

version 1
version 1

Whole song

Interactive

7,066 views 9 this week
6 commentsread comments
1 2 3 4 5
x 4
add to favorites
×
Save as Personal and add changes to this tab that will be seen only by you. Learn more ›
×
You can save this tab as Personal to edit and correct it or add notes. All changes will be seen only by you. Learn more »
launch autoscroll
font size
0
reset
how to read this tab
guitar tuner
edit
Autoscroll
slow
fast
+/-
esc
set tempo
stop
Author
Band:  Street Sweeper Social Club
Album: Street Sweeper Social Club
Song:  Promenade

     Intro/Verses: Keep repeating til chorus
E|---------------------------------------------------|
B|---------------------------------------------------|
G|---------------------------------------------------|
D|---------------------------------------------------|
A|-------------------------------------5-------------|
E|---0---0---0---0---0---0---0---0-5h7---------------|

     Verses (Gtr II):
E|--------------------------------------------|
B|---8-8-8-8-8-8-8-8-10-10-10-10-10-10-10-10--|
G|--------------------------------------------|
D|--------------------------------------------|
A|--------------------------------------------|
E|--------------------------------------------|

E|----------------------------------------------------|
B|---12-12-12-12-12-12-12-12-15-15-15-15-15-15-15-15--|
G|----------------------------------------------------|
D|----------------------------------------------------|
A|----------------------------------------------------|
E|----------------------------------------------------|

     Chorus (2x): Kinda hard for me to write it out, but you'll get it
E|-------------------------------------------------------|
B|-------------------------------------------------------|
G|---9----9-9---5--5-5--4-7---12--12-12---7--7-7--4-7----|
D|---9----9-9---5--5-5--4-7---12--12-12---7--7-7--4-7----|
A|---7----7-7---3--3-3--2-5---10--10-10---5--5-5--2-5----|
E|-------------------------------------------------------|


Now I can't tab out the solo, but I know the main part is Tom bending on the 14th fret 
the G and picking the 15th fret.

            
            
Suggest correction
Creating personal tab
Creating personal tab
You can edit any tab online and save it as your Personal.

You can edit, replace or remove any tab part or add personal notes – all changes will be seen only by you.

Personal tabs can be accessed anytime from any device, even offline.
Learn more »
comments
print report bad tab
6 comments total. Showing first comments.
+3 reply
hippi901 182 Jun 28, 2009 03:11 AM

good tab :D i believe the chords in the chorus are octave chords instead of power chords though.. and a solo would have been good. 4 stars

0 reply
hernandeznathan 10 Jul 14, 2009 09:52 AM

Here is a video and I hope this helps:http://www.youtube.com/watch?v=fYfuNpGOOu0

0 reply
Asweepai 81 Jul 31, 2009 08:54 PM

yea i watch that video alot

i can write out the beginning of the 2nd solo. you need a whammy pedal. push it down on every note

E|---------------------------------------------------|
B|---------------------------------------------------|
G|---------------------------------------------------|
D|---14-16-17-19--21-------21-19-17-16-16------------|
A|---------------------------------------------------|
E|---------------------------------------------------|

E|---------------------------------------------------|
B|---------------------------------------------------|
G|---------------------------------------------------|
D|---17---16-14--17--16-14-----14-16-17-21-19--------|
A|---------------------------------------------------|
E|---------------------------------------------------|

im not sure bout the 2nd part, it sounds like a G5, but idk if its harmonics or watever, idk this is close

E|---------------------------------------------------|
B|---------8-----------8-----------8----------8------|
G|------7-----7-----7-----7-----7-----7----7-----7---|
D|---5-----------5-----------5----------5------------|
A|---------------------------------------------------|
E|---------------------------------------------------|

guest
You may want to rate the tab now too:
select rating
Wanna post a correction for this tab? Suggest correction