Oops, an error
Loading. Please wait.

The Squeeze tab

version 2
version 2

Whole song

823 views 1 this week
no commentswrite comment
1 2 3 4 5
1 last vote to show rating
add to favorites
×
Save as Personal and add changes to this tab that will be seen only by you. Learn more ›
×
You can save this tab as Personal to edit and correct it or add notes. All changes will be seen only by you. Learn more »
launch autoscroll
font size
0
reset
how to read this tab
guitar tuner
edit
Autoscroll
slow
fast
+/-
esc
set tempo
stop
Author
Street Sweeper Social Club - The Squeeze


Intro:

It starts off with this D chord:

e|---------------|
B|-3-------------|
G|-2-------------|
D|-0-------------|
A|-0-------------|
E|---------------|

Then you palm mute the D chord and kinda open it all the time...
I think it's played like 56 times so thats 3 and a half bars of it.

Then you do this:

e|-----------|
B|-----------|
G|-----------|
D|-7----8----|
A|-5----6----|
E|-----------|


Chorus:

e|----------------------------|--------------------------|
b|----------------------------|--------------------------|
G|----------------------------|--------------------------|
D|-5--------------------------|--------------------------| 4x
A|---7-5--7--5-7--5-7-5-------|-5------------------------|
E|----------------------7-5---|---7-5--7--5-7--5-7-5-0---|

e|-------------|
B|-------------|
G|-------------|
D|-7-----8-----|
A|-5-----6-----|
E|-------------|


Verse:

e|--------------------------|--------------------------|
B|--------------------------|--------------------------|
G|--------------------------|--------------------------|
D|--------------------------|--------------------------| 7x
A|-7--5--7--5------5--------|----7--5-----7--5------5--|
E|-------------/7-----7--0--|----------0--------/7-----|


e|--------------------------|-------------------------|
B|--------------------------|-------------------------|
G|--------------------------|-------------------------|
D|--------------------------|-------------7-----8-----| 
A|-7--5--7--5------5--------|----7--5-----5-----6-----|
E|-------------/7-----7--0--|----------0--------------|

Chorus:

e|----------------------------|--------------------------|
b|----------------------------|--------------------------|
G|----------------------------|--------------------------|
D|-5--------------------------|--------------------------| 4x
A|---7-5--7--5-7--5-7-5-------|-5------------------------|
E|----------------------7-5---|---7-5--7--5-7--5-7-5-0---|

e|-------------|
B|-------------|
G|-------------|
D|-7-----8-----|
A|-5-----6-----|
E|-------------|


Verse:

e|--------------------------|--------------------------|
B|--------------------------|--------------------------|
G|--------------------------|--------------------------|
D|--------------------------|--------------------------| 7x
A|-7--5--7--5------5--------|----7--5-----7--5------5--|
E|-------------/7-----7--0--|----------0--------/7-----|


e|--------------------------|-------------------------|
B|--------------------------|-------------------------|
G|--------------------------|-------------------------|
D|--------------------------|-------------7-----8-----| 
A|-7--5--7--5------5--------|----7--5-----5-----6-----|
E|-------------/7-----7--0--|----------0--------------|


Chorus:

e|----------------------------|--------------------------|
B|----------------------------|--------------------------|
G|----------------------------|--------------------------|
D|-5--------------------------|--------------------------| 4x
A|---7-5--7--5-7--5-7-5-------|-5------------------------|
E|----------------------7-5---|---7-5--7--5-7--5-7-5-0---|


Outro:

                            x3
e|----------------------------|----------------------------|
B|----------------------------|----------------------------|
G|----------------------------|----------------------------|
D|-5--------------------------|-5--------------------------|
A|---7-5--7--5-7--5-7-5-------|---7-5--7--5-7--5-----------|
E|----------------------7-5---|------------------7-5-0-----|


Have fun:D
Suggest correction
Creating personal tab
Creating personal tab
You can edit any tab online and save it as your Personal.

You can edit, replace or remove any tab part or add personal notes – all changes will be seen only by you.

Personal tabs can be accessed anytime from any device, even offline.
Learn more »
Give kudos to tab author, rate the tab!
1 2 3 4 5
comments
print report bad tab
guest
You may want to rate the tab now too:
select rating
Wanna post a correction for this tab? Suggest correction