Oops, an error
Loading. Please wait.

Dear Sergio bass

version 1
version 1

Whole song

Interactive

3,414 views 3 this week
1 commentread comment
1 2 3 4 5
x 3
add to favorites
×
Save as Personal and add changes to this tab that will be seen only by you. Learn more ›
×
You can save this tab as Personal to edit and correct it or add notes. All changes will be seen only by you. Learn more »
launch autoscroll
font size
0
reset
guitar tuner
edit
Autoscroll
slow
fast
+/-
esc
set tempo
stop
Author
Difficulty
Song: Dear Sergio
Artist: Streetlight Manifesto
Album: Keasbey Nights
Tempo: 145

The first time I put this tab up I realized it was really long and annoying to 
Also I noticed some errors that were overlooked when I transfered the tab from my guitar pro 
So I edited everything and simplified it down to each of the different parts.
This is my line to warm up to, I hope you enjoy it!

Intro:
      H.          E  E     H.            E   E     H.            E   E
G||---------------------|------------------------|-----------------------|
D||---------------3--3--|------------------------|-----------------------|
A||---------------------|------------------------|-----------------------|
E||--12\----------------|----------------13--13--|---------------13--13--|

  H      H
-------------------|
-------------------|
-------------------|
---------12\-------|

Verse/Main line:
  E  E  E  E  E  E  E  E     E  E  E  E  E  E  E  E
--------------------------|--------------------------|
--------2-----3--2--0-----|-----------------5-----4--|
-----3-----3-----------3--|-----2--5-----3-----2-----|
--5-----------------------|--3--------3--------------|

  E  E  E  E  E  E  E  E     E  E  E  E  E  E  E  E
--------------------------|--------------------------|
--------------0-----------|--------------------------|
--0--2--3--2-----3--2--0--|-----0--2--3-----2--5-----|
--------------------------|--1-----------3--------3--|

Pre-Chorus:
  Q    Q      Q     Q         Q     Q      Q     Q
--------------------------|----------------------------|
--------------------------|--12----12\-----------------|
-------------10----10\----|---------------12----12\----|
--8----8\-----------------|----------------------------|

  Q    Q      Q     Q         Q     Q      Q     Q
--------------------------|----------------------------|
--------------------------|--12----12\-----------------|
-------------10----10\----|---------------12----12\----|
--8----8\-----------------|----------------------------|

Chorus:
  E  E  E  E  E  E  E  E     E  E  E  E  E  E  E  E
--------------------------|--------------------------|
--------------------------|--------------5--5--5--5--|
--3--3--3--3--------------|--3--3--3--3--------------|
--------------3--3--3--3--|--------------------------|

  E  E  E  E  E  E  E  E     E  E  E  E  E  E  E  E
--------------------------|--------------2--2--2--2--|
--------------5--3--2--2--|--------------------------|
--3--3--3--3--------------|--0--0--0--0--------------|
--------------------------|--------------------------|

  E  E  E  E  E  E  E  E     E  E  E  E  E  Q.
--------------------------|--------------9------|
--------------------------|--9--9--9--9---------|
--------------7--7--7--7--|---------------------|
--0--0--0--0--------------|---------------------|

Bridge:
   Q    Q    Q    Q     Q    Q    Q    Q     Q    Q    Q    Q
|--------------------|--------------------|---------------------|
|--------------------|--------------------|---------------------|
|------------8----8\-|------------3----2--|------------5----5---|
|--5----5------------|--3----3------------|--5----5-------------|

      E  E  E  E  E  Q.
|-------------------------|
|-(0)-3--2--0-------------|
|--------------3----------|
|-----------------3-------|

Outro (same as intro):
   H.      E  E     H.      E   E     H.         E   E
-----------------|------------------|--------------------|
-----------3--3--|------------------|--------------------|
-----------------|------------------|--------------------|
--12\------------|----------13--13--|------------13--13--|

  H         H
-----------------------||
-----------------------||
-----------------------||
------------12\--------||


Riff order:
---------------
Intro
main riff 4x
Pre-chorus
Chorus
main riff 4x
pre-chorus
chorus
bridge
main riff 5x
1/2 the chorus (listen to the song you'll know what I mean)
pre-chorus
Chorus
Outro

Duration Legend
---------------
W - whole
H - half
Q - quarter
E - 8th
S - 16th

Tablature Legend
----------------
/ -  slide into from below or out of upwards
\ -  slide into from above or out of downwards
() - Grace Note

            
            
Suggest correction
Creating personal tab
Creating personal tab
You can edit any tab online and save it as your Personal.

You can edit, replace or remove any tab part or add personal notes – all changes will be seen only by you.

Personal tabs can be accessed anytime from any device, even offline.
Learn more »
Give kudos to tab author, rate the tab!
1 2 3 4 5
comments
print report bad tab
1 comment total.
0 reply
dakota_s_ 277 Jul 12, 2008 05:10 PM

Thank you muchly! I have wanted to play this song for so long but I've been to lazy to figure it out. And honesly I probably couldn't have cause I'm not the greatest player out there. The tab sounds right to me so good job!

guest
You may want to rate the tab now too:
select rating
Wanna post a correction for this tab? Suggest correction