Oops, an error
Loading. Please wait.

Forty Days tab

version 1
version 1

Whole song

Interactive

6,335 views 6 this week
no commentswrite comment
1 2 3 4 5
1 last vote to show rating
add to favorites
×
Save as Personal and add changes to this tab that will be seen only by you. Learn more ›
×
You can save this tab as Personal to edit and correct it or add notes. All changes will be seen only by you. Learn more »
launch autoscroll
font size
0
reset
how to read this tab
guitar tuner
edit
Autoscroll
slow
fast
+/-
esc
set tempo
stop
Author
-------------------------------------------------------------------------------
                        FORTY DAYS - Streetlight Manifesto
-------------------------------------------------------------------------------
Tabbed by: Dan Wright
Email: muziklvr1714@yahoo.com

Tuning: Standard (EADGBe)
    1  +  2  +  3  +  4  +      1  +  2  +  3  +  4  +     1  +  2  +  3  +  4  +
e|--------5-----------3-----|---------5-----------3-----|--------5-----------3-----|
B|--------5-----------3-----|---------5-----------3-----|--------5-----------3-----|
G|--------5-----------4-----|---------5-----------4-----|--------5-----------4-----|
D|--------------------------|---------------------------|--------------------------|
A|--------------------------|---------------------------|--------------------------|
E|--5----------33--3-----0--|---5----------33--3-----0--|--5----------33--3-----0--|

    1  +  2  +  3  +  4  +      1  +  2  +  3  +  4  +     1  +  2  +  3  +  4  +
e|--0-----------0-----3-33-3|------5--r--5--r--3--r--3--|--r--5--r--5--r--3--r--3--|
B|--1-----------0-----3-33-3|------5--r--5--r--3--r--3--|--r--5--r--5--r--3--r--3--|
G|--0-----------0-----4-44-4|------5--r--5--r--4--r--4--|--r--5--r--5--r--4--r--4--|
D|--2-----------------------|---------------------------|--------------------------|
A|--3-----------------------|---------------------------|--------------------------|
E|--------------------------|---5-----------------------|--------------------------|

    1  +  2  +  3  +  4  +      1  +  2  +  3  +  4  +     1  +  2  +  3  +  4  +
e|--r--5--r--5--r--3--r--3--|---3--3--2--0--0--0--3--3--|-----5--r--5--r--3--r--3--|
B|--r--5--r--5--r--3--r--3--|---5--3--4--2--0--0--3--3--|-----5--r--5--r--3--r--3--|
G|--r--5--r--5--r--4--r--4--|---5--5--4--2--1--1--4--4--|-----5--r--5--r--4--r--4--|
D|--------------------------|---------------------------|--------------------------|
A|--------------------------|---------------------------|--------------------------|
E|--------------------------|---------------------------|--5-----------------------|

    1  +  2  +  3  +  4  +      1  +  2  +  3  +  4  +     1  +  2  +  3  +  4  +
e|--r--5--r--5--r--3--r--3--|---r--5--r--5--r--3--r--3--|--------3--3--------3--3--|
B|--r--5--r--5--r--3--r--3--|---r--5--r--5--r--3--r--3--|--------5--5--------3--4--|
G|--r--5--r--5--r--4--r--4--|---r--5--r--5--r--4--r--4--|--------5--5--------4--4--|
D|--------------------------|---------------------------|--5--5--------------------|
A|--------------------------|---------------------------|--3--3--------------------|
E|--------------------------|---------------------------|--------------0--0--------|

    1  +  2  +  3  +  4  +      1  +  2  +  3  +  4  +     1  +  2  +  3  +  4  +
e|-----1--r--1-----0--r--0--|------0-----0-----0-----3--|-----1--r--1-----0--r--0--|
B|-----1--r--1-----0--r--0--|------1-----1-----2-----3--|-----1--r--1-----0--r--0--|
G|-----2--r--2-----1--r--1--|------0-----0-----2-----4--|-----2--r--2-----1--r--1--|
D|--------------------------|--2------------------------|--------------------------|
A|--3----------2------------|--3------2-----0-----------|--3-----------2-----------|
E|--1----------0------------|---------------------3-----|--1-----------0-----------|

    1  +  2  +  3  +  4  +      1  +  2  +  3  +  4  +     1  +  2  +  3  +  4  +
e|--5-----------3-----------|------1--r--1-----0--r--0--|-----0-----0-----0-----3--|
B|--5-----------3-----------|------1--r--1-----0--r--0--|-----1-----1-----2-----3--|
G|--5-----------4-----------|------2--r--2-----1--r--1--|-----0-----0-----2-----4--|
D|--7-----------5-----------|---------------------------|--2-----------------------|
A|--7-----------5-----------|---3-----------2-----------|--3-----2-----0-----------|
E|--5-----------3-----------|---1-----------0-----------|--------------------3-----|

    1  +  2  +  3  +  4  +     1  +  2  +  3  +  4  +    1  +  2  +  3  +  4  +
e|-----1--r--1-----0--r--0--|-----55----55----55----55|-----55----55----00----00|
B|-----1--r--1-----0--r--0--|-----55----55----66----66|-----55----55----00----00|
G|-----2--r--2-----1--r--1--|-----55---555----77---777|-----55---555----11---111|
D|--------------------------|--------------7----------|-------------------------|
A|--3-----------2-----------|--7-----------5----------|--7-----------2----------|
E|--1-----------0-----------|--5----------------------|--5-----------0----------|

    1  +  2  +  3  +  4  +      1  +  2  +  3  +  4  +     1  +  2  +  3  +  4  +
e|--5-----3-----5--r--------|---------------------------|--------------------------|
B|--5-----3-----5--r--------|---------------------------|--------------------------|
G|--5-----4-----5--r--------|---------------------------|--------------------------|
D|--------------------------|---------------------------|--------------------------|
A|--------------------------|---------------------------|--------------------------|
E|--------------------------|---------------------------|--------------------------|

    1  +  2  +  3  +  4  +      1  +  2  +  3  +  4  +     1  +  2  +  3  +  4  +
e|--------------------------|---------------5--r--3--3--|-----5--r--5--r--3--r--3--|
B|--------5--r--------3-----|---------------5--r--3--3--|-----5--r--5--r--3--r--3--|
G|-------5-----------4------|---------------5--r--4--4--|-----5--r--5--r--4--r--4--|
D|--------------------------|---------------------------|--7-----------------------|
A|--------------------------|---------------------------|--7-----------------------|
E|--------------------------|---------------------------|--5-----------------------|

    1  +  2  +  3  +  4  +      1  +  2  +  3  +  4  +     1  +  2  +  3  +  4  +
e|--r--5--r--5--r--3--r--3--|---r--5--r--5--r--3--r--3--|--r--5--r--5--r--3--r--3--|
B|--r--5--r--5--r--3--r--3--|---r--5--r--5--r--3--r--3--|--r--5--r--5--r--3--r--3--|
G|--r--5--r--5--r--4--r--4--|---r--5--r--5--r--4--r--4--|--r--5--r--5--r--4--r--4--|
D|--------------------------|---------------------------|--------------------------|
A|--------------------------|---------------------------|--------------------------|
E|--------------------------|---------------------------|--------------------------|

    1  +  2  +  3  +  4  +      1  +  2  +  3  +  4  +     1  +  2  +  3  +  4  +
e|--r--5--r--5--r--3--r--3--|---r--5--r--5--r--3--r--3--|--r--5--r--5--r--3--r--3--|
B|--r--5--r--5--r--3--r--3--|---r--5--r--5--r--3--r--3--|--r--5--r--5--r--3--r--3--|
G|--r--5--r--5--r--4--r--4--|---r--5--r--5--r--4--r--4--|--r--5--r--5--r--4--r--4--|
D|--------------------------|---------------------------|--------------------------|
A|--------------------------|---------------------------|--------------------------|
E|--------------------------|---------------------------|--------------------------|

    1  +  2  +  3  +  4  +      1  +  2  +  3  +  4  +     1  +  2  +  3  +  4  +
e|--r--5--r--5--3--r--------|------1--r--1--r--3--r--3--|--r--5--r--5--r--8--r--8--|
B|--r--5--r--5--3--r--------|------1--r--1--r--3--r--3--|--r--5--r--5--r--8--r--8--|
G|--r--5--r--5--4--r--------|------2--r--2--r--4--r--4--|--r--5--r--5--r--9--r--9--|
D|--------------------------|---------------------------|--------------------------|
A|--------------------------|---------------------------|--------------------------|
E|--------------------------|---------------------------|--------------------------|

    1  +  2  +  3  +  4  +     1  +  2  +  3  +  4  +      1  +  2  +  3  +  4  +
e|--r--1--r--1--r--3--r--3--|--555r-----888r-----000r---|-----1--r--1--r--3--r--3--|
B|--r--1--r--1--r--3--r--3--|--555r-----889r-----011r---|-----1--r--1--r--3--r--3--|
G|--r--2--r--2--r--4--r--4--|--555r-----999r-----111r---|-----2--r--2--r--4--r--4--|
D|--------------------------|---------------------------|--------------------------|
A|--------------------------|---------------------------|--------------------------|
E|--------------------------|---------------------------|--------------------------|

    1  +  2  +  3  +  4  +      1  +  2  +  3  +  4  +     1  +  2  +  3  +  4  +
e|--r--5--r--5--r--8--r--8--|---r--1--r--1--r--3--r--3--|--5-----------------------|
B|--r--5--r--5--r--8--r--8--|---r--1--r--1--r--3--r--3--|--5-----------------------|
G|--r--5--r--5--r--9--r--9--|---r--2--r--2--r--4--r--4--|--5-----------------------|
D|--------------------------|---------------------------|--------------------------|
A|--------------------------|---------------------------|--------------------------|
E|--------------------------|---------------------------|--------------------------|

    1  +  2  +  3  +  4  +      1  +  2  +  3  +  4  +     1  +  2  +  3  +  4  +
e|-----1--r--1-----0--r--0--|------0-----0-----0-----3--|-----1--r--1-----0--r--0--|
B|-----1--r--1-----0--r--0--|------1-----1-----2-----3--|-----1--r--1-----0--r--0--|
G|-----2--r--2-----1--r--1--|------0-----0-----2-----4--|-----2--r--2-----1--r--1--|
D|--------------------------|---2-----------------------|--------------------------|
A|--3-----------2-----------|---3-----2-----0-----------|--3-----------2-----------|
E|--1-----------0-----------|---------------------3-----|--1-----------0-----------|

    1  +  2  +  3  +  4  +      1  +  2  +  3  +  4  +     1  +  2  +  3  +  4  +
e|--5-----------3-----------|------1--r--1-----0--r--0--|-----0-----0-----0-----3--|
B|--5-----------3-----------|------1--r--1-----0--r--0--|-----1-----1-----2-----3--|
G|--5-----------4-----------|------2--r--2-----1--r--1--|-----0-----0-----2-----4--|
D|--7-----------5-----------|---------------------------|--2-----------------------|
A|--7-----------5-----------|---3-----------2-----------|--3-----2-----0-----------|
E|--5-----------3-----------|---1-----------0-----------|--------------------3-----|

    1  +  2  +  3  +  4  +     1  +  2  +  3  +  4  +      1  +  2  +  3  +  4  +
e|-----1--r--1-----0--r--0--|-----55----55----55----55--|-----55----55----00----00--|
B|-----1--r--1-----0--r--0--|-----55----55----66----66--|-----55----55----00----00--|
G|-----2--r--2-----1--r--1--|-----55---555----77---777--|-----55---555----11---111--|
D|--------------------------|--------------7------------|---------------------------|
A|--3-----------2-----------|--7-----------5------------|--7-----------2------------|
E|--1-----------0-----------|--5------------------------|--5-----------0------------|

    1  +  2  +  3  +  4  +      1  +  2  +  3  +  4  +     1  +  2  +  3  +  4  +
e|--5-----3-----5--r--------|---------------------------|--------------------------|
B|--5-----3-----5--r--------|---------------------------|--------------------------|
G|--5-----4-----5--r--------|---------------------------|--------------------------|
D|--------------------------|---------------------------|--------------------------|
A|--------------------------|---------------------------|--------------------------|
E|--------------------------|---------------------------|--------------------------|

    1  +  2  +  3  +  4  +      1  +  2  +  3  +  4  +     1  +  2  +  3  +  4  +
e|--------------------------|---------------------------|-----5--r--5--r--3--r--3--|
B|--------------------------|---------------------------|-----5--r--5--r--3--r--3--|
G|--------------------------|---------------------------|-----5--r--5--r--4--r--4--|
D|--------------------------|---------------------------|--------------------------|
A|--------------------------|---------------------------|--------------------------|
E|--------------------------|---------------------------|--5-----------------------|

    1  +  2  +  3  +  4  +     1  +  2  +  3  +  4  +     1  +  2  +  3  +  4  +
e|--r--5--r--5--r--3--r--3--|--r--5--r--5--r--3--r--3--|--3--3--2--0--0--r--------|
B|--r--5--r--5--r--3--r--3--|--r--5--r--5--r--3--r--3--|--5--5--4--2--0--r--------|
G|--r--5--r--5--r--4--r--4--|--r--5--r--5--r--4--r--4--|--5--5--4--2--1--r--------|
D|--------------------------|--------------------------|--------------------------|
A|--------------------------|--------------------------|--------------------------|
E|--------------------------|--------------------------|--------------------------|

    1  +  2  +  3  +  4  +     1  +  2  +  3  +  4  +     1  +  2  +  3  +  4  +
e|-----5--r--5--r--3--r--3--|--r--5--r--5--r--3--r--3--|--r--5--r--5--r--3--r--3--|
B|-----5--r--5--r--3--r--3--|--r--5--r--5--r--3--r--3--|--r--5--r--5--r--3--r--3--|
G|-----5--r--5--r--4--r--4--|--r--5--r--5--r--4--r--4--|--r--5--r--5--r--4--r--4--|
D|--7-----------------------|--------------------------|--------------------------|
A|--7-----------------------|--------------------------|--------------------------|
E|--5-----------------------|--------------------------|--------------------------|

    1  +  2  +  3  +  4  +     1  +  2  +  3  +  4  +     1  +  2  +  3  +  4  +
e|--r--5--r--5--r--3--r--3--|--r--5--r--5--r--3--r--3--|--r--5--r--5--r--3--r--3--|
B|--r--5--r--5--r--3--r--3--|--r--5--r--5--r--3--r--3--|--r--5--r--5--r--3--r--3--|
G|--r--5--r--5--r--4--r--4--|--r--5--r--5--r--4--r--4--|--r--5--r--5--r--4--r--4--|
D|--------------------------|--------------------------|--------------------------|
A|--------------------------|--------------------------|--------------------------|
E|--------------------------|--------------------------|--------------------------|

    1  +  2  +  3  +  4  +      1  +  2  +  3  +  4  +     1  +  2  +  3  +  4  +
e|--r--5--r--5--r--3--r--3--|---r--5--r--5--3--r--------|--r--1--r--1--r--3--r--3--|
B|--r--5--r--5--r--3--r--3--|---r--5--r--5--3--r--------|--r--1--r--1--r--3--r--3--|
G|--r--5--r--5--r--4--r--4--|---r--5--r--5--4--r--------|--r--2--r--2--r--4--r--4--|
D|--------------------------|---------------------------|--------------------------|
A|--------------------------|---------------------------|--------------------------|
E|--------------------------|---------------------------|--------------------------|

    1  +  2  +  3  +  4  +     1  +  2  +  3  +  4  +     1  +  2  +  3  +  4  +
e|--r--5--r--5--r--8--r--8--|--r--1--r--1--r--3--r--3--|--555r-----888r-----000r--|
B|--r--5--r--5--r--8--r--8--|--r--1--r--1--r--3--r--3--|--555r-----888r-----000r--|
G|--r--5--r--5--r--9--r--9--|--r--2--r--2--r--4--r--4--|--555r-----999r-----111r--|
D|--------------------------|--------------------------|--------------------------|
A|--------------------------|--------------------------|--------------------------|
E|--------------------------|--------------------------|--------------------------|

    1  +  2  +  3  +  4  +     1  +  2  +  3  +  4  +     1  +  2  +  3  +  4  +
e|-----1--r--1--r--3--r--3--|--r--5--r--5--r--8--r--8--|--r--5--r--5--r--8--r--8--|
B|-----1--r--1--r--3--r--3--|--r--5--r--5--r--8--r--8--|--r--5--r--5--r--8--r--8--|
G|-----2--r--2--r--4--r--4--|--r--5--r--5--r--9--r--9--|--r--5--r--5--r--9--r--9--|
D|--------------------------|--------------------------|--------------------------|
A|--------------------------|--------------------------|--------------------------|
E|--------------------------|--------------------------|--------------------------|

    1  +  2  +  3  +  4  +     1  +  2  +  3  +  4  +      1  +  2  +  3  +  4  +
e|--r--1--r--1--r--3--r--3--|--5------------------------|-----1--r--1-----0--r--0--|
B|--r--1--r--1--r--3--r--3--|--5------------------------|-----1--r--1-----0--r--0--|
G|--r--2--r--2--r--4--r--4--|--5------------------------|-----2--r--2-----1--r--1--|
D|--------------------------|---------------------------|--------------------------|
A|--------------------------|---------------------------|--3-----------2-----------|
E|--------------------------|---------------------------|--1-----------0-----------|

    1  +  2  +  3  +  4  +      1  +  2  +  3  +  4  +     1  +  2  +  3  +  4  +
e|-----0-----0-----0-----3--|------1--r--1-----0--r--0--|--5-----------3-----------|
B|-----1-----1-----2-----3--|------1--r--1-----0--r--0--|--5-----------3-----------|
G|-----0-----0-----2-----4--|------2--r--2-----1--r--1--|--5-----------4-----------|
D|--2-----------------------|---------------------------|--7-----------5-----------|
A|--3-----2-----0-----------|---3-----------2-----------|--7-----------5-----------|
E|--------------------3-----|---1-----------0-----------|--5-----------3-----------|

    1  +  2  +  3  +  4  +     1  +  2  +  3  +  4  +      1  +  2  +  3  +  4  +
e|-----1--r--1-----0--r--0--|-----0-----0-----0-----3---|-----1--r--1-----0--r--0--|
B|-----1--r--1-----0--r--0--|-----1-----1-----2-----3---|-----1--r--1-----0--r--0--|
G|-----2--r--2-----1--r--1--|-----0-----0-----2-----4---|-----2--r--2-----1--r--1--|
D|--------------------------|--2------------------------|--------------------------|
A|--3-----------2-----------|--3-----2-----0------------|--3-----------2-----------|
E|--1-----------0-----------|--------------------3------|--1-----------0-----------|

    1  +  2  + 3  +  4  +      1  +  2  + 3  +  4  +      1  +  2  +  3  +  4  +
e|-----55----55---55----55--|-----55----55---00----00--|--5-----3-----5--r--------|
B|-----55----55---66----66--|-----55----55---00----00--|--5-----3-----5--r--------|
G|-----55---555---77---777--|-----55---555---11---111--|--5-----4-----5--r--------|
D|-------------7------------|--------------------------|--------------------------|
A|--7----------5------------|--7----------2------------|--------------------------|
E|--5-----------------------|--5----------0------------|--------------------------|

    1  +  2  +  3  +  4  +     1  +  2  +  3  +  4  +      1  +  2  +  3  +  4  +
e|--------------------------|---------------------------|--------------------------|
B|--------------------------|---------------------------|--------------------------|
G|--------------------------|---------------------------|--------------------------|
D|--------------------------|---------------------------|--------------------------|
A|--0----2320------0------7-|--8--7--5---3-7-----5--3---|--0----2320------0--------|
E|--------------3-----0-----|---------------------------|--------------3-----0-----|

    1  +  2  +  3 + 4  +   1  +  2  +  3  +  4  +     1  +  2  +  3  +  4  +
e|--111r--111r--00000000|-----5--r--5--r--3--r--3--|--r--5--r--5--r--3--r--3--|
B|--111r--111r--00000000|-----5--r--5--r--3--r--3--|--r--5--r--5--r--3--r--4--|
G|--222r--222r--11111111|-----5--r--5--r--4--r--4--|--r--5--r--5--r--4--r--4--|
D|----------------------|--------------------------|--------------------------|
A|----------------------|--------------------------|--------------------------|
E|----------------------|--5-----------------------|--------------------------|

    1  +  2  +  3  +  4  +     1  +  2  +  3  +  4  +     1  +  2  +  3  +  4  +
e|--r--5--r--5--r--3--r--3--|--3--r--2--r--0--r--3--r--|-----5--r--5--r--3--r--3--|
B|--r--5--r--5--r--3--r--3--|--5--r--4--r--0--r--4--r--|-----5--r--5--r--3--r--4--|
G|--r--5--r--5--r--4--r--4--|--5--r--4--r--1--r--4--r--|-----5--r--5--r--4--r--4--|
D|--------------------------|--------------------------|--------------------------|
A|--------------------------|--------------------------|--------------------------|
E|--------------------------|--------------------------|--5-----------------------|

    1  +  2  +  3  +  4  +     1  +  2  +  3  +  4  +     1  +  2  +  3  +  4  +
e|--r--5--r--5--r--3--r--3--|--r--5--r--5--r--3--r--3--|--------3--3--------3--3--|
B|--r--5--r--5--r--3--r--3--|--r--5--r--5--r--3--r--3--|--------5--5--------3--4--|
G|--r--5--r--5--r--4--r--4--|--r--5--r--5--r--4--r--4--|--------5--5--------4--4--|
D|--------------------------|--------------------------|--5--5--------------------|
A|--------------------------|--------------------------|--3--3--------------------|
E|--------------------------|--------------------------|--------------0--0--------|

    1  +  2  +  3  +  4  +     1  +  2  +  3  +  4  +     1  +  2  +  3  +  4  +
e|-----1--r--1-----0--r--0--|-----0-----0-----0-----3--|-----1--r--1-----0--r--0--|
B|-----1--r--1-----0--r--0--|-----1-----1-----2-----3--|-----1--r--1-----0--r--0--|
G|-----2--r--2-----1--r--1--|-----0-----0-----2-----4--|-----2--r--2-----1--r--1--|
D|--------------------------|--2-----------------------|--------------------------|
A|--3-----------2-----------|--3-----2-----0-----------|--3-----------2-----------|
E|--1-----------0-----------|--------------------3-----|--1-----------0-----------|

    1  +  2  +  3  +  4  +     1  +  2  +  3  +  4  +     1  +  2  +  3  +  4  +
e|--555r-----888r-----000r--|--r--1--r--1--r--3--r--3--|--r--5--r--5--r--8--r--8--|
B|--555r-----888r-----000r--|--r--1--r--1--r--3--r--3--|--r--5--r--5--r--8--r--8--|
G|--555r-----999r-----111r--|--r--2--r--2--r--4--r--4--|--r--5--r--5--r--9--r--9--|
D|--------------------------|--------------------------|--------------------------|
A|--------------------------|--------------------------|--------------------------|
E|--------------------------|--------------------------|--------------------------|

    1  +  2  +  3  +  4  +   1 + 2 + 3 +  4 +   1  +  2  +  3  +  4  +
e|--r--1--r--1--r--3--r--3--|5555555555555555|--------1-----------0----|
B|--r--1--r--1--r--3--r--3--|5555555555555555|--------1-----------0----|
G|--r--2--r--2--r--4--r--4--|5555555555555555|--------2-----------1----|
D|--------------------------|----------------|-------------------------|
A|--------------------------|----------------|--3--------------2-------|
E|--------------------------|----------------|--1-----------0----------|

    1  +  2  +  3  +  4  +     1  +  2  +  3  +  4  +    1  +  2  +  3  +  4  +
e|--------------------------|--------1-----------0----|--5-----------------3-----|
B|--------------------------|--------1-----------0----|--5-----------------3-----|
G|--------------------------|--------2-----------1----|--5-----------4-----4-----|
D|-----2-----2-----2-----0--|-------------------------|--7-----------5-----------|
A|--3-----2-----0-----------|-----3-----------2-------|--7-----------5-----------|
E|--------------------3-----|--1-----------0----------|--5-----------3-----------|

    1  +  2  +  3  +  4  +     1  +  2  +  3  +  4  +      1  +  2  +  3  +  4  +
e|--------1-----------0-----|---------------------------|--------1-----------0--00-|
B|--------1-----------0-----|---------------------------|--------1-----------0--00-|
G|--------2-----------1-----|---------------------------|--------2-----------1--11-|
D|--------------------------|-----2-----2-----2-----0---|-----------------------2--|
A|-----3-----3-----2--------|--3-----2-----0------------|-----3-----------2--------|
E|--1-----------0-----------|--------------------3------|--1-----------0-----------|

    1  +  2  +  3  +  4  +     1  +  2  +  3  +  4  +     1  +  2  +  3  +  4  +
e|--5-----5--5--5-----5--5--|--5-----5--5--0-----0--00--|-5--------3--------5----|
B|--5-----5--5--6-----6--66-|--5-----5--5--0-----0--00--|-5--------3--------5----|
G|--5-----5--55-7-----7--77-|--5-----5--55-1-----1--11--|-5--------4--------5----|
D|--7-----7---7-7-----7---7-|--7-----7---7-2-----2--22--|-7--------5--------7----|
A|--7-----7---7-5-----5-----|--7-----7---7-2-----2------|-7--------5--------7----|
E|--5-----5-----------------|--5-----5-----0-----0------|-5--------3--------5----|


| /  slide up
| \  slide down
| h  hammer-on
| p  pull-off
| ~  vibrato
| +  harmonic
| x  Mute note
| r  Rest
===============================================================================


            
            
Suggest correction
Creating personal tab
Creating personal tab
You can edit any tab online and save it as your Personal.

You can edit, replace or remove any tab part or add personal notes – all changes will be seen only by you.

Personal tabs can be accessed anytime from any device, even offline.
Learn more »
Give kudos to tab author, rate the tab!
1 2 3 4 5
comments
print report bad tab
guest
You may want to rate the tab now too:
select rating
Wanna post a correction for this tab? Suggest correction