Oops, an error
Loading. Please wait.

Forty Days Bass Tab

version 2
version 2

Whole song

Interactive

886 views 1 this week
1 commentread comment
1 2 3 4 5
please rate
add to favorites
launch autoscroll
font size
0
reset
guitar tuner
Tab Pro tools
  • play this tab
  • loop segment
  • change instrument
  • show fretboard
  • metronome
×
Best way to learn
"Forty Days"
Autoscroll
slow
fast
+/-
esc
set tempo
stop
Contributor
Difficulty
intermediate
My head was starting to hurt from looking at the 5-String version of this tab, so I just 
edited to where us 4-stringers can look at it easier.
Original: http://tabs.ultimate-guitar.com/s/streetlight_manifesto/forty_days_btab.htm

INTRO:
|--------------------|----------------|----------------|
|------------5-------|----------------|----------------|
|--------0h7---7-5-3-|----------------|----------------|
|--------------------|-5--------------|--8------0---3--|

(0:07)
|----------------|-----5-4h5p4----|----------------|----------------|
|-----7----5-----|----------------|-7---------5----|----------------|
|----------------|---7---------5--|-------------5--|-----5-7--------|
|-5-----------3--|-5--------------|----5--3--------|-8--------0---3-|

(0:15)
|----------------|----------------|-----5-4h5p4----|-----------------|
|-------7-5------|-----7-5h7p5----|----------------|-----------------|
|-----7-----5----|---7------------|---7----------5-|-----5-7---------|
|-5-----------3--|-5-----------3--|-5--------------|-8---------0---3-|

(0:23)
|----------------|----------------|----------------|-2-----4---------|
|--------2-------|----------------|--------2-------|-----------------|
|---3h5--------5-|-3---2---0------|---3h5------5-3-|-0---------------|
|-1--------------|-------------3--|-1--------------|-------3---------|

(0:30)
|----------------|----------------|----------------|---------------7-|
|---------2------|------------5-3-|-------22-0-----|-7----7------7---|
|-0---3h5------5-|-3h5-2h3-0------|---3h5------3-5-|----7-----5------|
|---1------------|----------------|-1--------------|-----------------|

(0:38)                          "And it's been..."
|----------------|----------------|----------------|
|-7----7---------|----------------|----------------|
|----7-----------|----------------|----------------|
|----------0--3--|--5------3---5--|----------------|

"...forty days..."                    "haunt you..."
|-5-----4----|-5-----4---|-5-----4---|-5---------|
|-7-----5----|-7-----5---|-7-----5---|-7---------|
|------------|-----------|-----------|-----------|
|------------|-----------|-----------|-------0-3-|

"die..."
|-----5-4h5p4-------|----------------|-----------------|----------------|
|---------------5h7-|-7-----------5--|--7----5---------|----------------|
|---7---------5-----|-----------5----|-----5-----2-5---|-----3----2-----|
|-5-----------------|----5---3-------|---------3-----3-|-5------------3-|

|---------------|-----------------|----------------|-----------------|
|------7--5-----|-----7-5h7p5-----|-7--------------|-7---------------|
|----7------5---|---7---------5\3-|---------3------|-----------------|
|-5-----------3-|-5---------------|----5-------3---|-------3-5---1-0-|

|----------------|-----------------|----------------|----------------|
|----------------|-----------------|----------------|----------------|
|----0-3---2-5---|----3-7--5-3-2-0-|----0-3---2-5---|-000---333------|
|-1------3-----3-|-5---------------|-1------3-----3-|------------333-|

(trombone solo)                                                (easier than it sounds)
|--------------------|-------------------|--------------------|---5------------------|
|--------------------|-------------------|--------------------|-7----7-5----/7-5-----|
|----0-3-0-----2-5---|---3-7-3---5-3-2-0-|----0-3-0-----2-5---|----------7-------7-5-|
|-1--------1-3-----3-|-5-------5---------|-1-------1-3------3-|----------------------|

"and no matter where we go..."
|------------------------|----------------|-2-----4-----|----------------------------|
|-3---3-5-2--------------|---3h5-2--------|-------------|-----3-5-2------------------|
|---3---------3--2--0----|-----------3----|-0-----------|-0----------5-3h5-2h3-0-0---|
|----------------------3-|-1--------------|-------3-----|---1----------------------3-|

|----------------|----------------|------------------|----------------|
|---3h5----------|----------------|------------------|----------------|
|--------3-2-0---|----2-5-5-------|------------------|----------------|
|-1------------3-|-5----------3-5-|-5--5-3-5--0--5-3-|--5----3----5---|

REST
(1:44 picks up with...)
|-------|--------------|-----5-4h5p5----|-------------|-----------|
|-------|----7---5-----|----------------|-7--------5--|-----------|
|-------|--------------|---7---------5--|-------------|------5-7--|
|-5/12\-|-5---------3--|-5--------------|---5---3-----|-8---------|

|---------------|-----5-4h5p4----|----------------|---------------|
|------7-5------|----------------|-7--------------|---------------|
|----7----------|---7---------5--|----------2-5---|-----3---2-----|
|-5---------3---|-5--------------|---5----3-----3-|-5----------3--|

|---------------|-----------------|-----------------|----------------|
|-----7---5-----|-----------------|-----------------|----------------|
|---7-----------|-----------------|-----3-7-5-3---3-|----------------|
|-5----------3--|-5---0---3---0h3-|-5-----------3---|-5---3-5----1-0-|

|----------------|-----------------|----------------|----------------|
|----------------|-----------------|----------------|----------------|
|----0-3---2-5---|----3-7--5-3-2-0-|----0-3---2-5---|-000---333------|
|-1------3-----3-|-5---------------|-1------3-----3-|------------333-|

|--------------------|-------------------|--------------------|---5-7-5---5-------|
|--------------------|-------------------|--------------------|-7-------7---7-5---|
|----0-3-0-----2-5---|---3-7-3---5-3-2-0-|----0-3-0-----2-5---|-----------------7-|
|-1--------1-3-----3-|-5-------5---------|-1-------1-3------3-|-------------------|

|------------------------|----------------|-2-----4-----|-----------2-4-5h7-4h5-2-----|
|-3---3-5-2--------------|---3h5-2--------|-------------|-----3-5-2---------------2---|
|---3---------3--2--0----|-----------3----|-0-----------|-0-------------------------3-|
|----------------------3-|-1--------------|-------3-----|---1-------------------------|

|---------------|--------------7--|----------------|----------------|
|---5-3-2-------|------7-----7----|------7---------|----------------|
|---------5-3-2-|----7----5-------|----7-----------|----------------|
|-1-------------|-5---------------|-5-------0--5-3-|--5----3----5---|

|---------------|------------------|--------------|-----------------|
|---------------|------------------|--------------|-333-333-2-0-----|
|-0-2320---0-2--|---0--3-------0---|-0-2320---0-2-|-------------3-2-|
|--------3------|-1-------1--3---3-|--------3-----|-----------------|

|---------------|-----------------|-----5-4h5p4-----|----------------|
|-----7---5-----|-----7-5h7-5-----|-------------5---|-7--------------|
|---7-------5---|---7---------5---|---7-----------5-|----------------|
|-5-----------3-|-5-------------3-|-5---------------|-----5---3---1--|

|---------------|-----5-4h5p4-----|------------------|----------------|
|-----7---5-----|-------------5---|-----7--------5-3-|-5---3--2-0-----|
|---7-------5---|---7-----------5-|---7--------2-----|------------3-2-|
|-5-----------3-|-5---------------|-5-----3--5-------|----------------|

|----------------|-----------------|----------------|----------------|
|----------------|-----------------|----------------|----------------|
|----0-3---2-5---|----3-7--5-3-2-0-|----0-3---2-5---|-000---333------|
|-1------3-----3-|-5---------------|-1------3-----3-|------------333-|

|--------------------|-------------------|--------------------|---5------------------|----|
|--------------------|-------------------|--------------------|-7----7-5----/7-5-----|----|
|----0-3-0-----2-5---|---3-7-3---5-3-2-0-|----0-3-0-----2-5---|----------7-------7-5-|----|
|-1--------1-3-----3-|-5-------5---------|-1-------1-3------3-|----------------------|-5\-|
comments
We did not receive enough feedback on this tab! Please rate:
print report bad tab
1 2 3 4 5
1 comment total.
0 reply
PhantomZombie wrote on September 8 2013, 08:36 pm

Thanks for this, I get the same problem with the 5 string tab, I just can't do it D: Thanks a bunch though :D.

I want to post or [tab]
guest
You may want to rate the tab now too:
select rating
Please do not post tabs as comments. Select "correction" instead!