Oops, an error
Loading. Please wait.

Kristina She Dont Know I Exist tab

version 1
version 1

Whole song

12,912 views 3 this week
3 commentsread comments
1 2 3 4 5
x 5
add to favorites
×
Save as Personal and add changes to this tab that will be seen only by you. Learn more ›
×
You can save this tab as Personal to edit and correct it or add notes. All changes will be seen only by you. Learn more »
launch autoscroll
font size
0
reset
how to read this tab
guitar tuner
edit
Autoscroll
slow
fast
+/-
esc
set tempo
stop
----------------------------------------------------------------------------
        Kristina She Don't Know I Exist - Streetlight Manifesto
----------------------------------------------------------------------------
Tabbed by: xXChasing SunsXx (though I give most credit to whoever tabbed the original 
and solo, this is a modified version of that)

Tuning: Standard


Note: In this tab, I've provided the chords for the song, the solo
and the lead part in Verse 3 are the only parts with actual tabs.


Chords Used: G,C,D,F#,Em

Intro:
G, E, C, D

Verse 1/2:
G, C, D, G, F#, Em, C, D, G
(note that F# is played quickly in a transition from G to Em, this also happens in the chorus)

Chorus:
G, C, D, G, F#, Em, C, D, G
(last G is played first time only)

Solo Chords are the same as the Intro chords.

Solo:
e|-----------------10------------------------------------------------------|
B|-----------------------10---------------------12*-10---------------------|
G|--------------------12*--------------------12*---------------------------|
D|-------9h10p9--------------------9h10p9----------------------------------|
A|-10h12--------10-----------10h12--------10-------------------------------|
E|-------------------------------------------------------------------------|

e|-----------------10------------------------------------------------------|
B|-----------------------10----------------------12*-10--------------------|
G|--------------------12*---------------------12*--------------------------|
D|-------9h10p9--------------/12-10-9h10p9---------------------------------|
A|-10h12--------10-------------------------10------------------------------|
E|-------------------------------------------------------------------------|

e|-------------------------------------------------------------------------|
B|-12-11-12\--12-11-12\--12-------15-17-15--------12/15-15-15-15-----------|
G|-12-11-12\--12-11-12\--12-14h16----------16-14--12/14-14-14-14-----------|
D|-------------------------------------------------------------------------|
A|-------------------------------------------------------------------------|
E|-------------------------------------------------------------------------|

e|-15----------------------15----15--15-14-----------------------------15--|
B|----17-15----------15-17----17-----------17-15-----------------12/15-----|
G|----------16-14h16-----------------------------17-16-14h16p14--12/14-----|
D|-------------------------------------------------------------------------|
A|-------------------------------------------------------------------------|
E|-------------------------------------------------------------------------|

Verse 3 (part 1):
G, C, D, G, F#, Em, C, D, G

Verse 3 (part 2):
e|-------------------------------------------------------------------------|
B|-12--15-13--13-12-10--10-12--13-12--12-10-10-8-8--12-10--10-8-7--7-8-10-8|
G|-------------------------------------------------------------------------|
D|-------------------------------------------------------------------------|
A|-------------------------------------------------------------------------|
E|-------------------------------------------------------------------------|

Outro:
G, E, C, D

End On:
G

| /  slide up
| \  slide down
| h  hammer-on
| p  pull-off
| *  harmonic
============================================================================
Suggest correction
Creating personal tab
Creating personal tab
You can edit any tab online and save it as your Personal.

You can edit, replace or remove any tab part or add personal notes – all changes will be seen only by you.

Personal tabs can be accessed anytime from any device, even offline.
Learn more »
comments
print report bad tab
3 comments total.
0 reply
xXChasingSunsXx 40 Aug 05, 2007 08:07 PM

Tiny edit - in the solo, the last part of the beginning should be:
B|----12----|
G|-12----12-|
instead of:
B|----12-10-|
G|-12-------|

+1 reply
mask824 52 Dec 31, 2007 07:30 PM

Good, but im sre that its an E minor in the intro rather than the E

0 reply
spencerkemp1964 44 Jun 18, 2016 08:32 AM

The tab of verse three is easier like this.

e|-7-10-8-8-7-------7-8-8-7------------------------+
B|------------10-10---------10-8-8-8-10-10-8-7-7-8-+

Or along those lines. Using 7,8,10 of the e and the B strings allows for more improvisation.

guest
You may want to rate the tab now too:
select rating
Wanna post a correction for this tab? Suggest correction