Oops, an error
Loading. Please wait.

The Big Sleep bass

version 1
version 1

Whole song

Interactive

6,890 views 6 this week
4 commentsread comments
1 2 3 4 5
x 6
add to favorites
×
Save as Personal and add changes to this tab that will be seen only by you. Learn more ›
×
You can save this tab as Personal to edit and correct it or add notes. All changes will be seen only by you. Learn more »
launch autoscroll
font size
0
reset
guitar tuner
edit
Autoscroll
slow
fast
+/-
esc
set tempo
stop
STREETLIGHT MANIFESTO - THE BIG SLEEP
Tabbed by Kevin Wilson
questions, comments - wilson.kevi@students.uwlax.edu


There are some parts that are probably off but not by too much.
Some of the bass lines are just too fast/high to hear but this 
should be somewhat close.



INTRO - Slowly with guitar
|-9---7---------|-10------------|---------------|-10----0-------|
|--------10-----|----10---------|-10--9---------|---------------|
|---------------|--------10-----|-------12--10--|---------------|
|---------------|---------------|---------------|---------------|

"Why do you..."
|------12-------|-10--9-----9-10-9----|-----12--------|---------------|
|--10-----------|--------12--------12-|-10------9-----|---10--12------|
|----------12---|---------------------|------------12-|-8---------10--|
|---------------|---------------------|---------------|---------------|


"I'm not leaving this place..."
Straight 8ths 
|---------------|---------------|----------------|---------------|
|---------------|--3*--2*---0*--|----------------|---------------|
|--3*---2*---0*-|---------------|--3*--2*--0*----|---------------|
|---------------|---------------|-------------3*-|--1*-----3*----|


Pre Chorus:

|---------------|---------------|---------------|---------------|
|-10--9---------|-----10--------|--10--9--------|---------------|
|---------12----|--8------10----|--------12--10-|--8-----10-----|
|---------------|---------------|---------------|---------------|

===========================================================================
CHORUS:

"Na na na..."	
|----------------|----------------|----------------|--------------------|
|----------------|----------------|----------------|--------------------|
|--3*----0*------|--3*----0*------|--3*----0*------|--3*--10*--12*--8*--|
|-----3*-----1*--|-----3*-----1*--|-----3*-----1*--|--------------------|

|------------------|------------------|-----------------|----------------|
|------------------|------------------|-----------------|----------------|
|-3*-----0*--------|--3*----0*--------|--33------00-----|--3*-----0*-----|
|----3*------1*-3*-|-----3*-----1*-3*-|------33------11-|------3*------1-|

"You're Impossible..."
|----------------|----------------|----------------|----------------|
|----------------|----------------|----------------|----------------|
|--33--00--------|-33--00---------|-33--00---------|--33--00--------|
|---------11--33-|---------11--33-|---------11--33-|----------1---3-|

===========================================================================

During the horn line:
These next three lines are played very fast,
listen to the song to get the rythym

|--------12-----|-------------|---------------|------------------|
|-10--10----10--|-12----14----|-----7--10-----|-----9--12--12----|
|---------------|---12-----12-|--8---------8--|--10-----------10-|
|---------------|-------------|---------------|------------------|


|--------12-----|-------14----|---------------|---------------|
|-10--10----10--|----14-------|--------10-----|---------------|
|---------------|-12-------12-|--8---8-----8--|--10-10--10\---|
|---------------|-------------|---------------|---------------|


|-----------------|---------12----|---------------|-------------|--------------|
|-----------------|--10---10--10--|--12----14-----|--------10---|---------12---|
|--3*--0*---------|---------------|----12------12-|--8---8----8-|--10---10--10-|
|----------1*--3*-|---------------|---------------|-------------|--------------|


"Me and Mr. Dillon..."
Slower
|-------------|-------------|----12-------12---|---------------|-------10------------|
|-10--9-------|----10-------|-10---10--9-----9-|-----14-----12-|-----10--------------|
|---------12--|-8------10---|------------------|-12------10----|-8--------8--10--10\-|
|-------------|-------------|------------------|---------------|---------------------|

|---------------|---------------|----------------|-------------------|
|---------------|--3*--2*---0*--|----------------|-------------------|
|--3*---2*---0*-|---------------|--3*--2*--0*----|-------------10h12-|
|---------------|---------------|-------------3*-|--1*-----3*--------|


|----12----12------14-----|------10--------------|-----------------|------10------------|
|-10----9--------14--14---|---10----12-10-12\5-5-|-----------------|---10---10----------|
|-------------12-------12-|-8--------------------|--3*--2*--0*-10*-|-8---------8-10-10\-|
|-------------------------|----------------------|-----------------|--------------------|

Play Chorus

then another part played very fast...

"So how many..."
|--------12----------12----|----------14----|------10-----------------|
|-10--10---10--9---9----9--|-------14---14--|---10----10-9-12-10-9----|
|--------------------------|--12------------|-8--------------------10-|
|--------------------------|----------------|-------------------------|


|-----0------0---|-----------12------10-----------|
|----------------|----7-----------10----10--------|
|--3----3-2----2-|-0-----10-----8----------8--10\-|
|----------------|--------------------------------|

guitar plays with no bass

then...


"So the soldiers..."
|----------------------------------|---10--10---9---9---7---7---7---7-|
|---10--10---9---9---7---7---7---7-|----------------------------------|
|----------------------------------|-8---8----7---7---5---5---5---5---|
|-8---8----7---7---5---5---5---5---|----------------------------------|


|---5---5---4---4---2---2---12--12|---10--10--10--10---12--12--12--12-|
|---------------------------------|-----------------------------------|
|-3---3---2---2---0---0---10--10--|-8---8---8---8---10--10---10--10---|
|-----------------|---------------|-----------------------------------|


|---------------|-----------------------|------------------------|---------------|
|---------------|-----------------------|------------------------|---------------|
|---------------|-3*-----0*-------------|--3*------0*------------|-3-------------|
|-1--0--1-010---|----3*-----1-0--1--010-|------3*-----1-0--1-010-|---------------|

No bass during guitar/vocals
picks up with...

|-------------------------|------------------|
|-------------------------|------------------|
|-------------------------|-------------3----|
|-1-0--1--010--1-0-1--010-|-1-0-1--010-------|

"Na na na..."	
|----------------|----------------|----------------|-----------------------|
|----------------|----------------|----------------|-----------------------|
|--3*----0*------|--3*----0*------|--3*----0*------|--3*-----0*------------|
|-----3*-----1*--|-----3*-----1*--|-----3*-----1*--|-----3*------1-0-1-010-|


|---------------------|------------||
|---------------------|------------||
|---------------------|-------3----||
|-1-0-1-010-1-0-1-010-|-1111-------||
Suggest correction
Creating personal tab
Creating personal tab
You can edit any tab online and save it as your Personal.

You can edit, replace or remove any tab part or add personal notes – all changes will be seen only by you.

Personal tabs can be accessed anytime from any device, even offline.
Learn more »
comments
print report bad tab
4 comments total. Showing first comments.
0 reply
ender21w 10 Aug 28, 2006 04:56 PM

this tab is pretty accurate. a few of the eighth note lines have leading notes into the next that were missed, but this is the gist of it.

0 reply
soppychunk 30 Apr 26, 2007 04:52 PM

one thing i didn't put in the tab was that in some of the chorus lines, several of the C's are actually an octave lower on a 5-string bass.

+2 reply
jthm4 30 Aug 16, 2011 05:39 PM

So I was working through the fast part at 1:40 and I think it should be:

|--------12-----|-------------|---------------|------------------|
|-10-9h10----10-|-7---7----7--|-----7--10-----|-----9--12--12----|
|---------------|--7------7---|--8---------8--|--10-----------10-|
|---------------|-------------|---------------|------------------|

|--------12-----|-------14----|---------------|---------------|
|-10-9h10----10-|----14-------|--------10-----|---------------|
|---------------|-12-------12-|--8---8-----8--|--10--8--7-----|
|---------------|-------------|---------------|-----------10--|

|-----------------|---------12----|-------------|-------------|--------------|
|-----------------|-10-9h10----10-|-7---7----7--|--------10---|----9-10-9----|
|--3*--0*---------|---------------|--7------7---|--8---8----8-|--10-------10-|
|----------1*--3*/|---------------|-------------|-------------|--------------|

guest
Wanna post a correction for this tab? Suggest correction