Oops, an error
Loading. Please wait.

Ungrateful Tab

25 views 3 this week
no commentswrite comment
1 2 3 4 5
3 more votes to show rating
add to favorites
launch autoscroll
font size
0
reset
how to read this tab
guitar tuner
Autoscroll
slow
fast
+/-
esc
set tempo
stop
Help us to improve Ultimate-Guitar.com Take our survey!
×
Author
Difficulty
novice
About this tab version
Made it a tab of the song, rather than just the chords. Was this info helpful? Yes No
[Intro]
e|-------2---2-------2-------4---4-------4-------4---4-------4-------2---2-------2-|
B|-------4---4-------4-------4---4-------4-------6---6-------6-------2---2-------2-|
G|---4---4---4-------4-------5---5-------5-------6---6-------6-------3---3-------3-|
D|-------------------------------------------------------------------4---4-------4-|
A|---------------------------------------------------------------------------------|
E|---------------------------------------------------------------------------------|

e|---2---2-------2-------4---4-------4-------4---4-------4-------2----|
B|---4---4-------4-------4---4-------4-------6---6-------6-------2----|
G|---4---4-------4-------5---5-------5-------6---6-------6-------3----|
D|---------------------------------------------------------------4----|
A|--------------------------------------------------------------------|
E|--------------------------------------------------------------------|(x6)

e|--------------------------------|
B|--------------------------------|
G|---4---------------6------------|
D|---4-------6-------6-------4----|
A|---2-------6-------4-------4----|
E|-----------4---------------2----|(x8)


[Verse 1]
e|----------------|
B|----------------|
G|---4------------|
D|---4-------2----|
A|---2-------2----|
E|-----------0----|(x8)


[Pre-Chorus]
e|-----------------------------------------------------|
B|-----------------------------------------------------|
G|---------------------------9---9---------------9---9-|
D|---4-------2-------9-------9---9-------9-------9---9-|
A|---4-------2-------9-------7---7-------9-------7---7-|
E|---2-------0-------7-------------------7-------------|(x2)

e|------------------------------------------------|
B|------------------------------------------------|
G|------------------------------------------------|
D|---4-------2-------4-------2-------4-------2----|
A|---4-------2-------4-------2-------4-------2----|
E|---2-------0-------2-------0-------2-------0----|


[Chorus]
e|---------------------------4----|
B|---------------------------5----|
G|---4-------3-------1-------6----|
D|---4-------4-------2-------6----|
A|---2-------4-------2-------4----|
E|-----------2-------0------------|(x6)


[Verse 2]
e|----------------|
B|----------------|
G|---4------------|
D|---4-------2----|
A|---2-------2----|
E|-----------0----|(x8)


[Pre-Chorus]
e|-----------------------------------------------------|
B|-----------------------------------------------------|
G|---------------------------9---9---------------9---9-|
D|---4-------2-------9-------9---9-------9-------9---9-|
A|---4-------2-------9-------7---7-------9-------7---7-|
E|---2-------0-------7-------------------7-------------|(x2)

e|------------------------------------------------|
B|------------------------------------------------|
G|------------------------------------------------|
D|---4-------2-------4-------2-------4-------2----|
A|---4-------2-------4-------2-------4-------2----|
E|---2-------0-------2-------0-------2-------0----|


[Chorus]
e|---------------------------4----|
B|---------------------------5----|
G|---4-------3-------1-------6----|
D|---4-------4-------2-------6----|
A|---2-------4-------2-------4----|
E|-----------2-------0------------|(x6)


[Interlude]
e|-------------------------------------|
B|-------------------------------------|
G|---4---------------9-----------9--11-|
D|---4-------4-------9-----------9--11-|
A|---2-------4-------7-----------7---9-|
E|-----------2-------------------------|

e|-------------------------------------|
B|-------------------------------------|
G|---4------11-------9-----------9--11-|
D|---4------11-------9-----------9--11-|
A|---2-------9-------7-----------7---9-|
E|-------------------------------------|(x5)


[Chorus]
e|---------------------------4----|
B|---------------------------5----|
G|---4-------3-------1-------6----|
D|---4-------4-------2-------6----|
A|---2-------4-------2-------4----|
E|-----------2-------0------------|(x9)


[Outro]
e|--------------------------------|
B|--------------------------------|
G|---4---------------6------------|
D|---4-------6-------6-------4----|
A|---2-------6-------4-------4----|
E|-----------4---------------2----|(x8)
Suggest correction
Give kudos to tab author, rate the tab!
1 2 3 4 5
comments
print report bad tab
guest
You may want to rate the tab now too:
select rating
Wanna post a correction for this tab? Suggest correction