Oops, an error
Loading. Please wait.

Walking Away bass

version 1
version 1

Whole song

Interactive

19,492 views 27 this week
2 commentsread comments
1 2 3 4 5
x 10
add to favorites
×
Save as Personal and add changes to this tab that will be seen only by you. Learn more ›
×
You can save this tab as Personal to edit and correct it or add notes. All changes will be seen only by you. Learn more »
launch autoscroll
font size
0
reset
guitar tuner
edit
Autoscroll
slow
fast
+/-
esc
set tempo
stop
Walking Away
By Streetlight Manifesto
Tabbed by Kevin Wilson
email - wilson.kevi@students.uwlax.edu


There are a few to many fast scales that if you play some of the notes it'll sound halfway
decent so just do what you can. I can't guarantee 100% accuracy but this is good enough
that it sounds close. I got lazy at the end and just wanted to finish it so yeah... 
good luck?



|---10---7--------|---------7------------|-----------------10--7---|
|-8----8---8-10-8-|------10---10-8-------|----------5-7-8----------|
|-----------------|-8-10-----------10-8--|----5-6-8----------------|
|-----------------|----------------------|-6-8-------------------6-|

|----------------5h7p5-|-----------------10--7---|-------------------|
|-----8-------7--------|----------5-7-8----------|-----8-------------|
|-6-----6---8----------|----5-6-8----------------|-6-----6--8-6-5----|
|---6------------------|-6-8-------------------6-|---6-------------8-|

TRUMPET COMES IN... 
|---------------------|------------------|---------------------|------------------|
|---------------------|-------5-7-5------|---------------------|-------5-7-5------|
|---5-6-8-------10----|-6---6-------8--6-|---5-6-8-------10----|-6---6-------8--6-|
|-6--------8-11----11-|---6--------------|-6--------8-11----11-|---6--------------|


|-----------------10--7---|------------------|-------------------|------------------|
|----------5-7-8----------|-------5-7-5---7--|-8---8-7-5---------|------------------|
|----5-6-8----------------|-6---6-------8----|----------8-6-5----|-6-6--------------|
|-6-----------------------|---6--------------|---------------8-6-|-------1-1---6-6--|

GUITAR ALONE FOR 4 MEASURES THEN...

|--------------10--7-|-----------------|
|----------7h8-------|-8-5-------------|
|-----5h6------------|-----8-5-8-5-----|
|-6h8----------------|-------------8-6-|


=====================================================================================
FULL HORN CHORUS

|---------------------|------------------|---------------------|------------------|
|---------------------|-------5-7-5------|---------------------|-------5-7-5------|
|---5-6-8-------10----|-6---6-------8--6-|---5-6-8-------10----|-6---6-------8--6-|
|-6--------8-11----11-|---6--------------|-6--------8-11----11-|---6--------------|


|--------------10--7-|-----------------|---------------------|------------------|
|----------7h8-------|-8-5-------------|---------------------|------------------|
|-----5h6------------|-----8-5-8-5-8---|---5-6-8-------10----|--6-6-------------|
|-6h8----------------|---------------6-|-6--------8-11----11-|--------1-1---6-6-|

======================================================================================
VERSE

|---------------------|------------------|---------------------|------------------|
|---------------------|-------5-7-5------|---------------------|-------5-7-5------|
|---5-6---------10----|-6---6-------8--6-|---5-6---------10----|-6---6-------8--6-|
|-6-----6--8-11----11-|---6--------------|-6-----6--8-11----11-|---6--------------|

|---------------------|------------------|---------------------|------------------|
|---------------------|-------5-7-5------|---------------------|-------5-7-5------|
|---5-6---------10----|-6---6-------8--6-|---5-6---------10----|-6---6-------8--6-|
|-6-----6--8-11----11-|---6--------------|-6-----6--8-11----11-|---6--------------|

HORNS COME IN FOR 4 MEASURES...
|---------------------|------------------|---------------------|------------------|
|---------------------|-------5-7-5------|---------------------|-------5-7-5------|
|---5-6-8-------10----|-6---6-------8--6-|---5-6-8-------10----|-6---6-------8--6-|
|-6--------8-11----11-|---6--------------|-6--------8-11----11-|---6--------------|

LYRICS
|---------------------|------------------|---------------------|------------------|
|---------------------|-------5-7-5------|---------------------|-------5-7-5------|
|---5-6---------10----|-6---6-------8--6-|---5-6---------10----|-6---6-------8--6-|
|-6-----6--8-11----11-|---6--------------|-6-----6--8-11----11-|---6--------------|

|---------------------|------------------|---------------------|------------------|
|---------------------|-------5-7-5------|---------------------|-------5-7-5------|
|---5-6---------10----|-6---6-------8--6-|---5-6---------10----|-6---6-------8--6-|
|-6-----6--8-11----11-|---6--------------|-6-----6--8-11----11-|---6--------------|

=====================================================================================

PLAY FULL HORN CHORUS

=====================================================================================
BRIDGE 
                                       FOLLOW TRUMPET RYTHYM
|------------------|------------------|-----8----8---------|------------------|
|------------------|------------------|--------------------|------------------|
|-6-6-6-6----------|------------------|-6-66-6-66----------|------------------|
|---------6-6-6-6--|-8-8-8-8-6-6-6-6--|------------6-6-6-6-|-8-8-8-8-6-6-6-6--|

|------------------|------------------|------------------|-------------------|
|---5-8-5----------|----------8-5-----|---5-8-5-8-5------|------------5-85---|
|-6---------5-8-5--|---6-10-8-----8-5-|-6-----------8-5--|---5-6-10-8-----85-|
|----------6-------|-8----------------|------------------|-8-----------------|

=====================================================================================
SOLO SECTION
                      (8) - GHOST NOTE
|------------------|---------------------|------------------|---------------------|
|------------------|----8(8)-5---5-------|------------------|----8(8)-5---5-------|
|---5-6-8-----10---|-6---------8---8-6---|---5-6-8-----10---|-6---------8---8-6---|
|-6-------8-11--11-|-------------------8-|-6-------8-11--11-|-------------------8-|

|------------------|---------------------|------------------|---------------------|
|------------------|----8(8)-5---5-------|------------------|---------------------|
|---5-6-8-----10---|-6---------8---8-6---|---5-6-8-----10---|-6-6-----------------|
|-6-------8-11--11-|-------------------8-|-6-------8-11--11-|------1-1-----6-6~---|


REPEAT THIS UNTIL BASS SOLO
|------------------|
|------------------|
|------------------|
|-6-6---------6-6--|

BASS LEAD INTO VERSE
|--------------------|------------------|---------------10-7-|---10-7---7--7-------|
|--------------------|---5-8-55-8-5-----|---------5-7-8------|-8------8--8---8-5---|
|---5-6-8------10----|-6------------8-5-|---5-6-8------------|-------------------8-|
|-6-------8-11----11-|------------------|-6------------------|---------------------|


|--------------------|------------------|------------------|------------------|
|--------------------|---5-8-55-8-5-----|------------------|------------------|
|---5-6-8------10----|-6------------8-5-|------------------|------------------|
|-6-------8-11----11-|------------------|-6----------------|------------------|


|--------------------|------------------|-------------------|-----------------|
|--------------------|-------55-7-5---7-|-8-5-----------8-5-|---8-5---8-5-----|
|---5-6-8------10----|-6---6--------8---|-----8-5---5-8-----|-------8-----8-5-|
|-6-------8-11----11-|---6--------------|---------6---------|-6---------------|

======================================================================================
SIMILAR TO FIRST BRIDGE

|------------------|------------------|-----8----8---------|------------------|
|------------------|------------------|--------------------|------------------|
|-6-6-6-6----------|------------------|-6-66-6-66----------|------------------|
|---------6-6-6-6--|-8-8-8-8-6-6-6-6--|------------6-6-6-6-|-8-8-8-8-6-6-6-6--|

|------------------|------------------|-------5-7--------|-------------------|
|---5-8-5----------|----------8-5-----|---5-8-----8-5----|----------8-5-85---|
|-6---------5-8-5--|---6-10-8-----8-5-|-6-------------8--|---5-6-10-------85-|
|---------6--------|-8----------------|------------------|-8-----------------|

======================================================================================
ONE MORE CHORUS

|---------------------|------------------|---------------------|------------------|
|---------------------|-------5-7-5------|---------------------|-------5-7-5------|
|---5-6-8-------10----|-6---6-------8--6-|---5-6-8-------10----|-6---6-------8--6-|
|-6--------8-11----11-|---6--------------|-6--------8-11----11-|---6--------------|


|--------------10--7-|-----------------|---------------------|------------------|
|----------7h8-------|-8-5-------------|---------------------|------------------|
|-----5h6------------|-----8-5-8-5-8---|---5-6-8-------10----|--6-6-------------|
|-6h8----------------|---------------6-|-6--------8-11----11-|--------1-1-------|

OR SOMETHING LIKE THAT...
|-------------7-5-7p5---|------------------|
|-----------8---------8-|------------------|
|---------8-------------|------------------|
|-6666--6---------------|-6----------------|

            
            
Suggest correction
Creating personal tab
Creating personal tab
You can edit any tab online and save it as your Personal.

You can edit, replace or remove any tab part or add personal notes – all changes will be seen only by you.

Personal tabs can be accessed anytime from any device, even offline.
Learn more »
comments
print report bad tab
2 comments total.
0 reply
Don't Stop 10 Oct 11, 2008 08:16 PM

|---10---7--------|---------7------------|-----------------10--7---|
|-8----8---8-10-8-|------10---10-8-------|----------5-7-8----------|
|-----------------|-8-10-----------10-8--|----5-6-8----------------|
|-----------------|----------------------|-6-8-------------------6-|

Try playing this part like this.

|---10---7--------|-------------------------------------10--7---|
|-8----8---8-10-8-|-----------8-10-8--------------5-7-8----------|
|-----------------|-10-8-8-10--------10-8-0-----5-6-8----------------|
|-----------------|---------------------------6-8-------------------6-|

0 reply
spencerkemp1964 44 Apr 18, 2017 02:55 PM

damn i wish i could slap the bass like this

guest
Wanna post a correction for this tab? Suggest correction