Oops, an error
Loading. Please wait.

Watch It Crash tab

version 1
version 1

Whole song

Interactive

6,870 views 9 this week
3 commentsread comments
1 2 3 4 5
x 5
add to favorites
×
Save as Personal and add changes to this tab that will be seen only by you. Learn more ›
×
You can save this tab as Personal to edit and correct it or add notes. All changes will be seen only by you. Learn more »
launch autoscroll
font size
0
reset
how to read this tab
guitar tuner
edit
Autoscroll
slow
fast
+/-
esc
set tempo
stop
Author
Difficulty
----------------------------------------------------------------------------
                     "Watch It Crash"-Streetlight Manifesto
----------------------------------------------------------------------------
Tabbed by: DMill
Email: DMill325@yahoo.com

Tuning: Eb Ab Db Gb Bb eb

Intro
e|-------------------------------------------------|
B|-------------------------------------------------|
G|-------------------------------------------------|
D|-3-3-3-3-x-x-x-x-3-3-3-3-x-x-x-x-3-3-3-3-x-x-x-x-|
A|-3-3-3-3-x-x-x-x-3-3-3-3-x-x-x-x-3-3-3-3-x-x-x-x-|
E|-1-1-1-1-x-x-x-x-1-1-1-1-x-x-x-x-1-1-1-1-x-x-x-x-|

e|---------------------------------|
B|---------------------------------|
G|---------------------------------|
D|-3-3-3-3-3-3-3-3-3-3-3-3-3-3-3-3-|
A|-3-3-3-3-3-3-3-3-3-3-3-3-3-3-3-3-|
E|-1-1-1-1-1-1-1-1-1-1-1-1-1-1-1-1-|
   x x x x x x x x x x x x x x x x (mute)

e|-----------------------------------------------|
B|-----------------------------------------------|
G|-----10-10-10-8-8-6-6-5-----10-10-10-8-8-6-6-5-|
D|-3-3--x--x--x-x-x-x-x-x-3-3--x--x--x-x-x-x-x-x-|
A|-3-3--8--8--8-6-6-4-4-3-3-3--8--8--8-6-6-4-4-3-|
E|-1-1--------------------1-1--------------------|

e|----------------------------------------|
B|----------------------------------------|
G|-----10-10-10-8-8-6-6-5-----------------|
D|-3-3--x--x--x-x-x-x-x-x-3-3-3-3-3-3-3-3-|
A|-3-3--8--8--8-6-6-4-4-3-1-1-1-1-1-1-1-1-|
E|-1-1------------------------------------|

e|-----------------------------------------------|
B|-----------------------------------------------|
G|-----10-10-10-8-8-6-6-5-----10-10-10-8-8-6-6-5-|
D|-3-3--x--x--x-x-x-x-x-x-3-3--x--x--x-x-x-x-x-x-|
A|-3-3--8--8--8-6-6-4-4-3-3-3--8--8--8-6-6-4-4-3-|
E|-1-1--------------------1-1--------------------|

e|----------------------------------------|
B|----------------------------------------|
G|-----10-10-10-8-8-6-6-5-----------------|
D|-3-3--x--x--x-x-x-x-x-x-3-3-3-3-x-8-x-9-|
A|-3-3--8--8--8-6-6-4-4-3-1-1-1-1-x-6-x-7-|
E|-1-1------------------------------------|

e|-----------------------------------------------------------------|
B|-----------------------------------------------------------------|
G|-----------------------------------------------------------------|
D|-3-3-3-3-6-6-6-6-8-8-8-8-6-6-5-5-3-3-3-3-6-6-6-6-8-8-8-8-x-8-x-9-|
A|-3-3-3-3-4-4-4-4-6-6-6-6-6-6-5-5-3-3-3-3-4-4-4-4-6-6-6-6-x-6-x-7-|
E|-1-1-1-1-----------------4-4-3-3-1-1-1-1-------------------------|

e|-------------------------------------------------|
B|-------------------------------------------------|
G|-------------------------------------------------|
D|-3-3-3-3-6-6-6-6-8-8-8-8-6-6-5-5-3-3-3-3-6-6-6-6-|
A|-3-3-3-3-4-4-4-4-6-6-6-6-6-6-5-5-3-3-3-3-4-4-4-4-|
E|-1-1-1-1-----------------4-4-3-3-1-1-1-1---------|

e|---------------------------------|
B|---------------------------------|
G|---------------------------------|
D|-5-5-5--x--5-5-5--x--5-5-5--x--5-|
A|-3-3-3--x--3-3-3--x--3-3-3--x--3-|
E|---------------------------------|

Verse 1 (Last night I woke alone with a whisper in my ear...)
e|-1-1-x-1-x-1-x-1-4-4-x-4-x-4-x-4-6-6-x-6-x-6-x-6-4-4-x-4-3-3-x-3-|
B|-1-1-x-1-x-1-x-1-6-6-x-6-x-6-x-6-8-8-x-8-x-8-x-8-5-5-x-5-4-4-x-4-|
G|-1-1-x-1-x-1-x-1-6-6-x-6-x-6-x-6-8-8-x-8-x-8-x-8-6-6-x-6-5-5-x-5-|
D|-3-3-x-3-x-3-x-3-6-6-x-6-x-6-x-6-8-8-x-8-x-8-x-8-6-6-x-6-5-5-x-5-|
A|-----------------------------------------------------------------|
E|-----------------------------------------------------------------|

e|-1-1-x-1-x-1-x-1-4-4-x-4-x-4-x-4-6-6-x-6-x-6-x-6-4-4-x-4-3-3-x-3-|
B|-1-1-x-1-x-1-x-1-6-6-x-6-x-6-x-6-8-8-x-8-x-8-x-8-5-5-x-5-4-4-x-4-|
G|-1-1-x-1-x-1-x-1-6-6-x-6-x-6-x-6-8-8-x-8-x-8-x-8-6-6-x-6-5-5-x-5-|
D|-3-3-x-3-x-3-x-3-6-6-x-6-x-6-x-6-8-8-x-8-x-8-x-8-6-6-x-6-5-5-x-5-|
A|-----------------------------------------------------------------|
E|-----------------------------------------------------------------|

e|-1-1-x-1-x-1-x-1-4-4-x-4-x-4-x-4-6-6-x-6-x-6-x-6-4-4-x-4-3-3-x-3-|
B|-1-1-x-1-x-1-x-1-6-6-x-6-x-6-x-6-8-8-x-8-x-8-x-8-5-5-x-5-4-4-x-4-|
G|-1-1-x-1-x-1-x-1-6-6-x-6-x-6-x-6-8-8-x-8-x-8-x-8-6-6-x-6-5-5-x-5-|
D|-3-3-x-3-x-3-x-3-6-6-x-6-x-6-x-6-8-8-x-8-x-8-x-8-6-6-x-6-5-5-x-5-|
A|-----------------------------------------------------------------|
E|-----------------------------------------------------------------|

e|-1-1-x-1-x-1-x-1-4-4-x-4-x-4-x-4-3-3-x-3-x-3-x-3-|
B|-1-1-x-1-x-1-x-1-6-6-x-6-x-6-x-6-5-5-x-5-x-5-x-5-|
G|-1-1-x-1-x-1-x-1-6-6-x-6-x-6-x-6-5-5-x-5-x-5-x-5-|
D|-3-3-x-3-x-3-x-3-6-6-x-6-x-6-x-6-5-5-x-5-x-5-x-5-|
A|-------------------------------------------------|
E|-------------------------------------------------|

e|-x-3-x-3-x-3-x-3-x-3-x-3-x-3-x-3-x-3-|
B|-x-5-x-5-x-5-x-5-x-5-x-5-x-5-x-5-x-5-|
G|-x-5-x-5-x-5-x-5-x-5-x-5-x-5-x-5-x-5-|
D|-x-5-x-5-x-5-x-5-x-5-x-5-x-5-x-5-x-5-|
A|-------------------------------------|
E|-------------------------------------|

Chorus 1 ("We can't just blame it on our mothers...")
e|-4-x-x-4--3-x-x-3--1-x-x-1--1-x-x-1--4-x-x-4--3-x-x-3--1-x-x-1--1-x-x-1-|
B|-6-x-x-6--5-x-x-5--1-x-x-1--1-x-x-1--6-x-x-6--5-x-x-5--1-x-x-1--1-x-x-1-|
G|-6-x-x-6--5-x-x-5--1-x-x-1--1-x-x-1--6-x-x-6--5-x-x-5--1-x-x-1--1-x-x-1-|
D|-6-x-x-6--5-x-x-5--3-x-x-3--3-x-x-3--6-x-x-6--5-x-x-5--3-x-x-3--3-x-x-3-|
A|------------------------------------------------------------------------|
E|------------------------------------------------------------------------|

e|-4-4-x-4-x-4-x-4-3-3-x-3-x-3-x-3-4-4-x-4-3-3-x-3-1-1-x-1-x-1-x-1-|
B|-6-6-x-6-x-6-x-6-5-5-x-5-x-5-x-5-5-5-x-5-4-4-x-4-1-1-x-1-x-1-x-1-|
G|-6-6-x-6-x-6-x-6-5-5-x-5-x-5-x-5-6-6-x-6-5-5-x-5-1-1-x-1-x-1-x-1-|
D|-6-6-x-6-x-6-x-6-5-5-x-5-x-5-x-5-6-6-x-6-5-5-x-5-3-3-x-3-x-3-x-3-|
A|-----------------------------------------------------------------|
E|-----------------------------------------------------------------|

e|-4-4-x-4-x-4-x-4-3-3-x-3-x-3-x-3-1-1-x-1-x-1-x-1-6-|
B|-6-6-x-6-x-6-x-6-5-5-x-5-x-5-x-5-1-1-x-1-x-1-x-1-8-|
G|-6-6-x-6-x-6-x-6-5-5-x-5-x-5-x-5-1-1-x-1-x-1-x-1-8-|
D|-6-6-x-6-x-6-x-6-5-5-x-5-x-5-x-5-3-3-x-3-x-3-x-3-8-|
A|---------------------------------------------------|
E|---------------------------------------------------|

e|-4-4-x-4-x-4-x-4-3-3-x-3-x-3-x-3-4-4-x-4-3-3-x-3-1-1-x-1-x-1-x-1-|
B|-6-6-x-6-x-6-x-6-5-5-x-5-x-5-x-5-5-5-x-5-4-4-x-4-1-1-x-1-x-1-x-1-|
G|-6-6-x-6-x-6-x-6-5-5-x-5-x-5-x-5-6-6-x-6-5-5-x-5-1-1-x-1-x-1-x-1-|
D|-6-6-x-6-x-6-x-6-5-5-x-5-x-5-x-5-6-6-x-6-5-5-x-5-3-3-x-3-x-3-x-3-|
A|-----------------------------------------------------------------|
E|-----------------------------------------------------------------|

e|-4-4-x-4-x-4-x-4-3-3-x-3-x-3-x-3-1-1-x-1-x-1-1-1-1-|
B|-6-6-x-6-x-6-x-6-5-5-x-5-x-5-x-5-1-1-x-1-x-1-1-1-1-|
G|-6-6-x-6-x-6-x-6-5-5-x-5-x-5-x-5-1-1-x-1-x-1-1-1-1-|
D|-6-6-x-6-x-6-x-6-5-5-x-5-x-5-x-5-3-3-x-3-x-3-3-3-3-|
A|---------------------------------------------------|
E|---------------------------------------------------|

Guitar Interlude
e|------------------------------------------------------------------------|
B|------------------------------------------------------------------------|
G|------------------------------------------------------------------------|
D|-3/10\3-3-3-3-3-6-6-6-6-8-8-8-8-6-6-5-5-3-3-3-3-6-6-6-6-8-8-8-8-x-8-x-9-|
A|-3/10\3-3-3-3-3-4-4-4-4-6-6-6-6-6-6-5-5-3-3-3-3-4-4-4-4-6-6-6-6-x-6-x-7-|
E|-1/-8\1-1-1-1-1-----------------4-4-3-3-1-1-1-1-------------------------|

e|-1-1-x-1-x-1-x-1-4-4-x-4-x-4-x-4-6-6-x-6-x-6-x-6-4-4-x-4-3-3-x-3-|
B|-1-1-x-1-x-1-x-1-6-6-x-6-x-6-x-6-8-8-x-8-x-8-x-8-5-5-x-5-4-4-x-4-|
G|-1-1-x-1-x-1-x-1-6-6-x-6-x-6-x-6-8-8-x-8-x-8-x-8-6-6-x-6-5-5-x-5-|
D|-3-3-x-3-x-3-x-3-6-6-x-6-x-6-x-6-8-8-x-8-x-8-x-8-6-6-x-6-5-5-x-5-|
A|-----------------------------------------------------------------|
E|-----------------------------------------------------------------|

e|-1-1-x-1-x-1-x-1-4-4-x-4-x-4-x-4-3-3-3--x--3-3-3--x--3-3-3--x--3-|
B|-1-1-x-1-x-1-x-1-6-6-x-6-x-6-x-6-5-5-5--x--5-5-5--x--5-5-5--x--5-|
G|-1-1-x-1-x-1-x-1-6-6-x-6-x-6-x-6-5-5-5--x--5-5-5--x--5-5-5--x--5-|
D|-3-3-x-3-x-3-x-3-6-6-x-6-x-6-x-6-5-5-5--x--5-5-5--x--5-5-5--x--5-|
A|-----------------------------------------------------------------|
E|-----------------------------------------------------------------|

Bridge 1 (So mercy, mercy, mercy me...)
e|---1---4---6-------1---4---6-----|
B|---1---6---8-------1---6---8-----|
G|---1---6---8-------1---6---8-----|
D|---------------------------------|
A|-----4---6-----------4---6-------|
E|-1-----------4-3-1-----------4-3-|

e|-1-1-x-1-4-4-x-4-6-6-x-6-x-4-x-3-|
B|-1-1-x-1-6-6-x-6-8-8-x-8-x-5-x-4-|
G|-1-1-x-1-6-6-x-6-8-8-x-8-x-6-x-5-|
D|-3-3-x-3-6-6-x-6-8-8-x-8-x-6-x-5-|
A|---------------------------------|
E|---------------------------------|

e|-1-1-x-1-4-4-x-4-3-3-3-3-3-3-3-3-|
B|-1-1-x-1-6-6-x-6-5-5-5-5-5-5-5-5-|
G|-1-1-x-1-6-6-x-6-5-5-5-5-5-5-5-5-|
D|-3-3-x-3-6-6-x-6-5-5-5-5-5-5-5-5-|
A|---------------------------------|
E|---------------------------------|

Chorus 2 ("We can't just blame it on our mothers...")
e|-4-x-x-4--3-x-x-3--1-x-x-1--1-x-x-1--4-x-x-4--3-x-x-3--1-x-x-1--1-x-x-1-|
B|-6-x-x-6--5-x-x-5--1-x-x-1--1-x-x-1--6-x-x-6--5-x-x-5--1-x-x-1--1-x-x-1-|
G|-6-x-x-6--5-x-x-5--1-x-x-1--1-x-x-1--6-x-x-6--5-x-x-5--1-x-x-1--1-x-x-1-|
D|-6-x-x-6--5-x-x-5--3-x-x-3--3-x-x-3--6-x-x-6--5-x-x-5--3-x-x-3--3-x-x-3-|
A|------------------------------------------------------------------------|
E|------------------------------------------------------------------------|

e|-4-4-x-4-x-4-x-4-3-3-x-3-x-3-x-3-4-4-x-4-3-3-x-3-1-1-x-1-x-1-x-1-|
B|-6-6-x-6-x-6-x-6-5-5-x-5-x-5-x-5-5-5-x-5-4-4-x-4-1-1-x-1-x-1-x-1-|
G|-6-6-x-6-x-6-x-6-5-5-x-5-x-5-x-5-6-6-x-6-5-5-x-5-1-1-x-1-x-1-x-1-|
D|-6-6-x-6-x-6-x-6-5-5-x-5-x-5-x-5-6-6-x-6-5-5-x-5-3-3-x-3-x-3-x-3-|
A|-----------------------------------------------------------------|
E|-----------------------------------------------------------------|

e|-4-4-x-4-x-4-x-4-3-3-x-3-x-3-x-3-1-1-x-1-x-1-x-1-6-|
B|-6-6-x-6-x-6-x-6-5-5-x-5-x-5-x-5-1-1-x-1-x-1-x-1-8-|
G|-6-6-x-6-x-6-x-6-5-5-x-5-x-5-x-5-1-1-x-1-x-1-x-1-8-|
D|-6-6-x-6-x-6-x-6-5-5-x-5-x-5-x-5-3-3-x-3-x-3-x-3-8-|
A|---------------------------------------------------|
E|---------------------------------------------------|

e|-4-4-x-4-x-4-x-4-3-3-x-3-x-3-x-3-4-4-x-4-3-3-x-3-1-1-x-1-x-1-x-1-|
B|-6-6-x-6-x-6-x-6-5-5-x-5-x-5-x-5-5-5-x-5-4-4-x-4-1-1-x-1-x-1-x-1-|
G|-6-6-x-6-x-6-x-6-5-5-x-5-x-5-x-5-6-6-x-6-5-5-x-5-1-1-x-1-x-1-x-1-|
D|-6-6-x-6-x-6-x-6-5-5-x-5-x-5-x-5-6-6-x-6-5-5-x-5-3-3-x-3-x-3-x-3-|
A|-----------------------------------------------------------------|
E|-----------------------------------------------------------------|

e|-4-4-x-4-x-4-x-4-3-3-x-3-x-3-x-3---------------------------------|
B|-6-6-x-6-x-6-x-6-5-5-x-5-x-5-x-5---------------------------------|
G|-6-6-x-6-x-6-x-6-5-5-x-5-x-5-x-5---------------------------------|
D|-6-6-x-6-x-6-x-6-5-5-x-5-x-5-x-5-5-5-5-5-5-5-5-5-5-5-5-5-5-5-5-5-|
A|---------------------------------3-3-3-3-3-3-3-3-3-3-3-3-3-3-3-3-|
E|-----------------------------------------------------------------|

Bridge 2 (So mercy, mercy, mercy me...)
e|-----------------------------------------------------------------|
B|-----------------------------------------------------------------|
G|-----------------------------------------------------------------|
D|-3-3-3-3-6-6-6-6-8-8-8-8-6-6-5-5-3-3-3-3-6-6-6-6-8-8-8-8-6-6-5-5-|
A|-3-3-3-3-4-4-4-4-6-6-6-6-6-6-5-5-3-3-3-3-4-4-4-4-6-6-6-6-6-6-5-5-|
E|-1-1-1-1-----------------4-4-3-3-1-1-1-1-----------------4-4-3-3-|
                                                           x x x x

e|-------------------------------------------------|
B|-------------------------------------------------|
G|-------------------------------------------------|
D|-3-3-3-3-6-6-6-6-8-8-8-8-6-6-5-5-3-3-3-3-6-6-6-6-|
A|-3-3-3-3-4-4-4-4-6-6-6-6-6-6-5-5-3-3-3-3-4-4-4-4-|
E|-1-1-1-1-----------------4-4-3-3-1-1-1-1---------|
   x x x x         x x     x x x x                 

e|---------------------------------|
B|---------------------------------|
G|---------------------------------|
D|-5-5-5--x--5-5-5--x--5-5-5--x--5-|
A|-3-3-3--x--3-3-3--x--3-3-3--x--3-|
E|---------------------------------|
   x x       x x       x x

Verse 2 (That's all they came for, that's all they took...)
e|-1-1-1-1-1-1-1-1-4-4-4-4-4-4-4-4-6-6-6-6-6-6-6-6-4-4-4-4-3-3-3-3-|
B|-1-1-1-1-1-1-1-1-6-6-6-6-6-6-6-6-8-8-8-8-8-8-8-8-5-5-5-5-4-4-4-4-|
G|-1-1-1-1-1-1-1-1-6-6-6-6-6-6-6-6-8-8-8-8-8-8-8-8-6-6-6-6-5-5-5-5-|
D|-3-3-3-3-3-3-3-3-6-6-6-6-6-6-6-6-8-8-8-8-8-8-8-8-6-6-6-6-5-5-5-5-|
A|-----------------------------------------------------------------|
E|-----------------------------------------------------------------|

e|-1-1-1-1-1-1-1-1-4-4-4-4-4-4-4-4-6-6-6-6-6-6-6-6-4-4-4-4-3-3-3-3-|
B|-1-1-1-1-1-1-1-1-6-6-6-6-6-6-6-6-8-8-8-8-8-8-8-8-5-5-5-5-4-4-4-4-|
G|-1-1-1-1-1-1-1-1-6-6-6-6-6-6-6-6-8-8-8-8-8-8-8-8-6-6-6-6-5-5-5-5-|
D|-3-3-3-3-3-3-3-3-6-6-6-6-6-6-6-6-8-8-8-8-8-8-8-8-6-6-6-6-5-5-5-5-|
A|-----------------------------------------------------------------|
E|-----------------------------------------------------------------|

e|-1-1-x-1-x-1-x-1-4-4-x-4-x-4-x-4-6-6-x-6-x-6-x-6-4-4-x-4-3-3-x-3-|
B|-1-1-x-1-x-1-x-1-6-6-x-6-x-6-x-6-8-8-x-8-x-8-x-8-5-5-x-5-4-4-x-4-|
G|-1-1-x-1-x-1-x-1-6-6-x-6-x-6-x-6-8-8-x-8-x-8-x-8-6-6-x-6-5-5-x-5-|
D|-3-3-x-3-x-3-x-3-6-6-x-6-x-6-x-6-8-8-x-8-x-8-x-8-6-6-x-6-5-5-x-5-|
A|-----------------------------------------------------------------|
E|-----------------------------------------------------------------|

e|-1-1-x-1-x-1-x-1-4-4-x-4-x-4-x-4-3-3-x-3-x-3-x-3-x-3-x-3-x-3-x-3-|
B|-1-1-x-1-x-1-x-1-6-6-x-6-x-6-x-6-5-5-x-5-x-5-x-5-x-5-x-5-x-5-x-5-|
G|-1-1-x-1-x-1-x-1-6-6-x-6-x-6-x-6-5-5-x-5-x-5-x-5-x-5-x-5-x-5-x-5-|
D|-3-3-x-3-x-3-x-3-6-6-x-6-x-6-x-6-5-5-x-5-x-5-x-5-x-5-x-5-x-5-x-5-|
A|-----------------------------------------------------------------|
E|-----------------------------------------------------------------|

Verse 3 (Mercy, mercy, mercy me...)
e|-1-1-x-1-x-1-x-1-4-4-x-4-x-4-x-4-6-6-x-6-x-6-x-6-4-4-x-4-3-3-x-3-|
B|-1-1-x-1-x-1-x-1-6-6-x-6-x-6-x-6-8-8-x-8-x-8-x-8-5-5-x-5-4-4-x-4-|
G|-1-1-x-1-x-1-x-1-6-6-x-6-x-6-x-6-8-8-x-8-x-8-x-8-6-6-x-6-5-5-x-5-|
D|-3-3-x-3-x-3-x-3-6-6-x-6-x-6-x-6-8-8-x-8-x-8-x-8-6-6-x-6-5-5-x-5-|
A|-----------------------------------------------------------------|
E|-----------------------------------------------------------------|

e|-1-1-x-1-x-1-x-1-4-4-x-4-x-4-x-4-6-6-x-6-x-6-x-6-4-4-x-4-3-3-x-3-|
B|-1-1-x-1-x-1-x-1-6-6-x-6-x-6-x-6-8-8-x-8-x-8-x-8-5-5-x-5-4-4-x-4-|
G|-1-1-x-1-x-1-x-1-6-6-x-6-x-6-x-6-8-8-x-8-x-8-x-8-6-6-x-6-5-5-x-5-|
D|-3-3-x-3-x-3-x-3-6-6-x-6-x-6-x-6-8-8-x-8-x-8-x-8-6-6-x-6-5-5-x-5-|
A|-----------------------------------------------------------------|
E|-----------------------------------------------------------------|

e|-1-1-x-1-x-1-x-1-4-4-x-4-x-4-x-4-6-6-x-6-x-6-x-6-4-4-x-4-3-3-x-3-|
B|-1-1-x-1-x-1-x-1-6-6-x-6-x-6-x-6-8-8-x-8-x-8-x-8-5-5-x-5-4-4-x-4-|
G|-1-1-x-1-x-1-x-1-6-6-x-6-x-6-x-6-8-8-x-8-x-8-x-8-6-6-x-6-5-5-x-5-|
D|-3-3-x-3-x-3-x-3-6-6-x-6-x-6-x-6-8-8-x-8-x-8-x-8-6-6-x-6-5-5-x-5-|
A|-----------------------------------------------------------------|
E|-----------------------------------------------------------------|

e|-1-1-x-1-x-1-x-1-4-4-x-4-x-4-x-4-3-3-3-3-3-3-3-3-|
B|-1-1-x-1-x-1-x-1-6-6-x-6-x-6-x-6-5-5-5-5-5-5-5-5-|
G|-1-1-x-1-x-1-x-1-6-6-x-6-x-6-x-6-5-5-5-5-5-5-5-5-|
D|-3-3-x-3-x-3-x-3-6-6-x-6-x-6-x-6-5-5-5-5-5-5-5-5-|
A|-------------------------------------------------|
E|-------------------------------------------------|

Chorus 3 (We can't quite blame it on our mothers...)
e|-----4-------3-----------1-----------4-------3---1-|
B|-------6-------5-----------1-----------6-------5-1-|
G|-----------------------1-----1-------------------1-|
D|---6-------5---------3---------3---6-------5-----3-|
A|-4-------3---------3-------------4-------3-------3-|
E|-----------------1-------------------------------1-|

e|-----4--------3----------1-------4-------3-------1---6-|
B|-------6--------5----------1-------6-------5-------1-8-|
G|-----------------------------------------------------8-|
D|---6--------5------------------6-------5-------------8-|
A|-4--------3------------3-----4-------3---------3-----6-|
E|-----------------4-3-1-----------------------1---------|

e|-----4-------3-----------1-------4-------3---1---4---1---3-|
B|-------6-------5-----------1-------6-------5-1---6---1---5-|
G|---------------------------------------------1---6---1---5-|
D|---6-------5-------------------6-------5-----3---6---3---5-|
A|-4-------3-------------3-----4-------3-------3---4---3---3-|
E|-----------------4-3-1-----------------------1-------1-----|

Outro
e|-----------------------------------------------------------------|
B|-----------------------------------------------------------------|
G|-----------------------------------------------------------------|
D|-6-6-6-6-6-6-6-6-5-5-5-5-5-5-5-5-3-3-3-3-3-3-3-3-3-3-3-3--5--6-|
A|-4-4-4-4-4-4-4-4-3-3-3-3-3-3-3-3-3-3-3-3-3-3-3-3-3-3-3-3--5--6-|
E|---------------------------------1-1-1-1-1-1-1-1-1-1-1-1--3--4-|
   x x x x x x x x x x x x x x x x x x x x x x x x x x x x  x  x 

e|----------------------------------------------------------------------|
B|----------------------------------------------------------------------|
G|----------------------------------------------------------------------|
D|-6-6-6-6-6-6-6-6-5-5-5-5-5-5-5-5-10-10-10-10-10-10-10-10--10--8--6--5-|
A|-4-4-4-4-4-4-4-4-3-3-3-3-3-3-3-3--8--8--8--8--8--8--8--8---8--6--4--3-|
E|----------------------------------------------------------------------|
   x x x x x x x x x x x x x x x x  x  x  x  x  x  x  x  x

e|-----------------------------------------------------------------|
B|-----------------------------------------------------------------|
G|-----------------------------------------------------------------|
D|-6-6-6-6-6-6-6-6-5-5-5-5-5-5-5-5-6-6-6-6-5-5-5-5-3-3-3-3-3-3-3-3-|
A|-4-4-4-4-4-4-4-4-3-3-3-3-3-3-3-3-6-6-6-6-5-5-5-5-3-3-3-3-3-3-3-3-|
E|---------------------------------4-4-4-4-3-3-3-3-1-1-1-1-1-1-1-1-|

e|--------------------------------------------------------------|
B|--------------------------------------------------------------|
G|--------------------------------------------------------------|
D|-6-6-6-5-5-5-3-3--3-3--3-3--3-3-6-6-6-5-5-5-3-3-3-3-3-3-3-3-3-|
A|-4-4-4-3-3-3-3-3--3-3--3-3--3-3-4-4-4-3-3-3-3-3-3-3-3-3-3-3-3-|
E|-------------1-1--1-1--1-1--1-1-------------1-1-1-1-1-1-1-1-1-|
                 .    .    .    .                             .
                     (.=staccato)

e|---------------------------------------------------------------|
B|---------------------------------------------------------------|
G|---------------------------------------------------------------|
D|-6-6-6-6-6-6-6-6-5-5-5-5-5-5-5-5-3-3-3-3-3-3-3-3-3-3-3-3--5--6-|
A|-4-4-4-4-4-4-4-4-3-3-3-3-3-3-3-3-3-3-3-3-3-3-3-3-3-3-3-3--5--6-|
E|---------------------------------1-1-1-1-1-1-1-1-1-1-1-1--3--4-|

e|----------------------------------------------------------------------|
B|----------------------------------------------------------------------|
G|----------------------------------------------------------------------|
D|-6-6-6-6-6-6-6-6-5-5-5-5-5-5-5-5-10-10-10-10-10-10-10-10--10--8--6--5-|
A|-4-4-4-4-4-4-4-4-3-3-3-3-3-3-3-3--8--8--8--8--8--8--8--8---8--6--4--3-|
E|----------------------------------------------------------------------|

e|-----------------------------------------------------------------|
B|-----------------------------------------------------------------|
G|-----------------------------------------------------------------|
D|-6-6-6-6-6-6-6-6-5-5-5-5-5-5-5-5-6-6-6-6-5-5-5-5-3-3-3-3-3-3-3-3-|
A|-4-4-4-4-4-4-4-4-3-3-3-3-3-3-3-3-6-6-6-6-5-5-5-5-3-3-3-3-3-3-3-3-|
E|---------------------------------4-4-4-4-3-3-3-3-1-1-1-1-1-1-1-1-|

e|-----------------------------------------------------------------|
B|-----------------------------------------------------------------|
G|-----------------------------------------------------------------|
D|-6-6-6-6-6-6-6-6-5-5-5-5-5-5-5-5-3-3-3-3-3-3-3-3-6-6-6-6-5-5-5-5-|
A|-4-4-4-4-4-4-4-4-3-3-3-3-3-3-3-3-3-3-3-3-1-1-1-1-4-4-4-4-3-3-3-3-|
E|---------------------------------1-1-1-1-------------------------|

e|-----------------------------------------------------------------|
B|-----------------------------------------------------------------|
G|-----------------------------------------------------------------|
D|-3-3-3-3-3-3-3-3-6-6-6-6-5-5-5-5-3-3-3-3-3-3-3-3-6-6-6-6-5-5-5-5-|
A|-3-3-3-3-1-1-1-1-4-4-4-4-3-3-3-3-3-3-3-3-1-1-1-1-4-4-4-4-3-3-3-3-|
E|-1-1-1-1-------------------------1-1-1-1-------------------------|

e|------------------------------------------------------|
B|------------------------------------------------------|
G|------------------------------------------------------|
D|-3-3-3-3-3-3-3-3-3-3-3-3-3--3-3-3-3-3-3-3-3-3-3-3-3-3-|
A|-3-3-3-3-3-3-3-3-3-3-3-3-3--3-3-3-3-3-3-3-3-3-3-3-3-3-|
E|-1-1-1-1-1-1-1-1-1-1-1-1-1--1-1-1-1-1-1-1-1-1-1-1-1-1-|
                           .                          .

e|---------------------------|
B|---------------------------|
G|---------------------------|
D|-3-3-3-3-3-3-3-3-3-3-3-3-3-|
A|-3-3-3-3-3-3-3-3-3-3-3-3-3-|
E|-1-1-1-1-1-1-1-1-1-1-1-1-1-|
                           .

e|---------------------------------------------------|
B|---------------------------------------------------|
G|---------------------------------------------------|
D|-3-3-3-3-3-3-3-3-3-3-3-3-3-3-3-3-3-3-3-3-3-3-3-3-3-|
A|-3-3-3-3-3-3-3-3-3-3-3-3-3-3-3-3-3-3-3-3-3-3-3-3-3-|
E|-1-1-1-1-1-1-1-1-1-1-1-1-1-1-1-1-1-1-1-1-1-1-1-1-1-|
                                                   .

e|-------------------------------|
B|-------------------------------|
G|-------------------------------|
D|-3--6--8--6-5-3--6--8--x-8-x-9-|
A|-3--4--6--6-5-3--4--6--x-6-x-7-|
E|-1--------4-3-1----------------|
   .  .  .  . . .  .

e|-------------------------------------------------|
B|-------------------------------------------------|
G|-------------------------------------------------|
D|-3-3-3-3-6-6-6-6-8-8-8-8-6-6-5-5-3-3-3-3-6-6-6-6-|
A|-3-3-3-3-4-4-4-4-6-6-6-6-6-6-5-5-3-3-3-3-4-4-4-4-|
E|-1-1-1-1-----------------4-4-3-3-1-1-1-1---------|

e|---------------------------------|
B|---------------------------------|
G|---------------------------------|
D|-5-5-5--x--5-5-5--x--5-5-5--x--5-|
A|-3-3-3--x--3-3-3--x--3-3-3--x--3-|
E|---------------------------------|

e|-----------------------------------------------|
B|-----------------------------------------------|
G|-----10-10-10-8-8-6-6-5-----10-10-10-8-8-6-6-5-|
D|-3-3--x--x--x-x-x-x-x-x-3-3--x--x--x-x-x-x-x-x-|
A|-3-3--8--8--8-6-6-4-4-3-3-3--8--8--8-6-6-4-4-3-|
E|-1-1--------------------1-1--------------------|

G|-----10-10-10-8-8-6-6-5-----------------|
D|-3-3--x--x--x-x-x-x-x-x-3-3-3-3-3-3-3-3-|
A|-3-3--8--8--8-6-6-4-4-3-1-1-1-1-1-1-1-1-|
E|-1-1------------------------------------|

e|-----------------------------------------------|
B|-----------------------------------------------|
G|-----10-10-10-8-8-6-6-5-----10-10-10-8-8-6-6-5-|
D|-3-3--x--x--x-x-x-x-x-x-3-3--x--x--x-x-x-x-x-x-|
A|-3-3--8--8--8-6-6-4-4-3-3-3--8--8--8-6-6-4-4-3-|
E|-1-1--------------------1-1--------------------|

e|----------------------------------------|
B|----------------------------------------|
G|-----10-10-10-8-8-6-6-5-----------------|
D|-3-3--x--x--x-x-x-x-x-x-3-3-3-3-x-8-x-9-|
A|-3-3--8--8--8-6-6-4-4-3-1-1-1-1-x-6-x-7-|
E|-1-1------------------------------------|

e|-------|
B|-------|
G|-------|
D|-3-3-3-|
A|-3-3-3-|
E|-1-1-1-|

| /  slide up
| \  slide down
| .  staccato
| x  Mute note
============================================================================
Suggest correction
Creating personal tab
Creating personal tab
You can edit any tab online and save it as your Personal.

You can edit, replace or remove any tab part or add personal notes – all changes will be seen only by you.

Personal tabs can be accessed anytime from any device, even offline.
Learn more »
comments
print report bad tab
3 comments total.
+2 reply
Hunter636 883 Nov 28, 2007 01:44 PM

Why did you have the tuning set to a half-step down if you don't use any of the open strings?

+1 reply
jbrowneatseggs 31 Feb 26, 2008 11:28 AM

yea what hunter said

guest
You may want to rate the tab now too:
select rating
Wanna post a correction for this tab? Suggest correction