Oops, an error
Loading. Please wait.

We Will Fall Together tab

version 2
version 2

Whole song

Interactive

67 views 3 this week
no commentswrite comment
1 2 3 4 5
3 more votes to show rating
add to favorites
×
Save as Personal and add changes to this tab that will be seen only by you. Learn more ›
×
You can save this tab as Personal to edit and correct it or add notes. All changes will be seen only by you. Learn more »
launch autoscroll
font size
0
reset
how to read this tab
guitar tuner
edit
Autoscroll
slow
fast
+/-
esc
set tempo
stop
Author
Difficulty
Streetlight Manifesto
We Will Fall Together

[Intro]
e|---------------------------------------------------------------------------|
B|-x-x-xx-x-xxx--------------------------------------------------------------|
G|-x-x-xx-x-xxx----67--677-6--------------------666-7-9-7-6--777-9-7-6-----6-|
D|-x-x-xx-x-xxx-x-9---9------9------9-9-9-988-8------------------------9-8---|
A|-x-x-xx-x-xxx----------------999-9-----------------------------------------|
E|---------------------------------------------------------------------------|


e|---------------777-777-777-777-----10--7-|
B|-----------777-777-777-777-777-777-7---7-|
G|-------888-888-888-888-888-888-888-8---8-|  This is the build up to the
D|-9-999-999-999-777-777-777-777-777-7---7-|   main riff. Palm mute and play
A|-9-999-999-999-999-999-999-999-999-9---9-|   around with 7ths and extensions
E|-7-777-777-777-777-777-777-777-777-7---7-|   and it should sound cool

[Main Riff]
e|--------------------------------------------------------------|
B|--------------------------------------------------------------|
G|--67--677-6--------------------666-7-9-7-6--777-9-7-6-----6---|
D|-9---9------9------9-9-9-988-8------------------------9-8---9-|
A|--------------999-9-------------------------------------------|x2
E|--------------------------------------------------------------|


e|----------------------------------------------------------|
B|----------------------------------------------------------|
G|-------------------------------------------9-11-9---------|
D|-9-12-11-11--9-11-12-11-9------12-11-11-12-------12-11-9--|
A|--------------------------9-10----------------------------|
E|----------------------------------------------------------|


e|----------------------------------------------------------------------------|
B|----------------------------------------------------------------------------|
G|---------------9--11-11-11-12-11-9-11----------------------------11-9-------|
D|-9-12-11-11-12------------------------12--12-12-11-11-12-11-11/8------12-11-|
A|----------------------------------------------------------------------------|
E|----------------------------------------------------------------------------|


e|---------------------------|
B|-8--5--10-8-7---8--10--12--|
G|---------------------------|  This is the trumpet part in the background that
D|---------------------------|   comes in after the trombone part
A|---------------------------|   It holds long notes but if you tremolo pick it
E|---------------------------|   sounds good on guitar, I think :)


e|-------------------------------------|
B|---------777-8-7---------------------|
G|---6-7-9---------9-7-----6-7-6-------|
D|-9---------------------9-------9-8-9-|
A|-------------------------------------|
E|-------------------------------------|

[Bass verse]
e|-----------------------------------------------------------|
B|-----------------------------------------------------------|
G|-------4------4------4------4------------------------------|  This isnt the
D|-----4------4------4------4----------------------5-4-2-----|   actual bassline
A|-2-2----xx2----2-2----xx2----------------------5-------5-4-|   cos I cant
E|-----------------------------2-2222-33-2-22-33-------------|   figure it out.
'I once knew a guy..'

[Verse]
e|-2-2-2-2-2-2-2-2-2-2-2-2-2-2-2-2-2--2-2-2-2--3-3--2--x--3-3-3-3--2-2-2-2-|
B|-3-3-3-3-3-3-3-3-3-3-3-3-3-3-3-3-3--2-2-2-2--3-3--2--x--3-3-3-3--2-2-2-2-|
G|-4-4-4-4-4-4-4-4-4-4-4-4-4-4-4-4-4--3-3-3-3--4-4--3--x--4-4-4-4--3-3-3-3-|
D|-4-4-4-4-4-4-4-4-4-4-4-4-4-4-4-4-4--4-4-4-4--5-5--4--x--5-5-5-5--4-4-4-4-|
A|-2-2-2-2-2-2-2-2-2-2-2-2-2-2-2-2-2--4-4-4-4--5-5--4--x--5-5-5-5--4-4-4-4-|
E|------------------------------------2-2-2-2--3-3--2--x--3-3-3-3--2-2-2-2-|
'Time was ticking by..'

[Verse Part 2]
e|-3-333-3-xx-2-2-|---------------------|-3-333-3-xx-2-2-|--------------------|
B|-3-333-3-xx-2-2-|---------------------|-3-333-3-xx-2-2-|--------------------|
G|-4-444-4-xx-3-3-|-4444----------------|-4-444-4-xx-3-3-|-4444-6666-7777-----|
D|-5-555-5-xx-4-4-|-4444-7777-5555-4444-|-5-555-5-xx-4-4-|-4444-6666-7777-7777|
A|-5-555-5-xx-4-4-|-2222-7777-5555-4444-|-5-555-5-xx-4-4-|-2222-4444-5555-7777|
E|-3-333-3-xx-2-2-|------5555-3333-2222-|-3-333-3-xx-2-2-|----------------5555|
'And we know not what we do..'

[Chorus]
e|-------------------------------------------------------|
B|-------------------------------------------------------|
G|---------------777777----------------------2-2---------|
D|-555555-777777-777777-444444-555555-777777-4-4-4-------|
A|-555555-777777-555555-444444-555555-777777-4-4-2-7-5-4-|
E|-333333-555555--------222222-333333-555555-2-2---5-3-2-|
'To the sky, to the ground..'


e|------------------------------------------------------------------|
B|------------------------------------------------------------------|
G|---------------777777---------------------------------------------|
D|-555555-777777-777777-444444-555555-777777-999999999999-----------|
A|-555555-777777-555555-444444-555555-777777-999999999999--5-5-7777-|
E|-333333-555555--------222222-333333-555555-777777777777--3-3-5555-|
'There'll be no victims..'

[Chorus Part 2]
e|-2-2------------5-5----3333----2-2------------5-5-|
B|-3-3-xx-7777-xx-5-5-xx-3333-xx-3-3-xx-7777-xx-5-5-|
G|-4-4-xx-7777-xx-6-6-xx-4444-xx-4-4-xx-7777-xx-6-6-|
D|-4-4-xx-7777-xx-7-7-xx-5555-xx-4-4-xx-7777-xx-7-7-|
A|-2-2-xx-5555-xx-7-7-xx-5555-xx-2-2-xx-5555-xx-7-7-|
E|----------------5-5----3333-------------------5-5-|
'and when we fall..'


e|-2-2------------5-5----3333----2-2------------2-|
B|-3-3-xx-7777-xx-5-5-xx-3333-xx-3-3-xx-7777-xx-2-|
G|-4-4-xx-7777-xx-6-6-xx-4444-xx-4-4-xx-7777-xx-3-|
D|-4-4-xx-7777-xx-7-7-xx-5555-xx-4-4-xx-7777-xx-4-|
A|-2-2-xx-5555-xx-7-7-xx-5555-xx-2-2-xx-5555-xx-4-|
E|----------------5-5----3333-------------------2-|
'And when we roam..'


[Fill]
e|-----------------------|
B|-----------------------|
G|-----------------------|
D|-9-xxx-9-xxx-9-xxx-9-x-|
A|-9-xxx-9-xxx-9-xxx-9-x-|x2
E|-7-xxx-7-xxx-7-xxx-7-x-|


Then play..


[Riff]
(Drop last note on the second time for timing)
e|--------------------------------------------------------------|
B|--------------------------------------------------------------|
G|--67--677-6--------------------666-7-9-7-6--777-9-7-6-----6---|
D|-9---9------9------9-9-9-988-8------------------------9-8---9-|
A|--------------999-9-------------------------------------------|x2
E|--------------------------------------------------------------|

[Verse x2] (Play in a more ska style)
e|-2-2-2-2-2-2-2-2-2-2-2-2-2-2-2-2-2--2-2-2-2--3-3--2--x--3-3-3-3--2-2-2-2-|
B|-3-3-3-3-3-3-3-3-3-3-3-3-3-3-3-3-3--2-2-2-2--3-3--2--x--3-3-3-3--2-2-2-2-|
G|-4-4-4-4-4-4-4-4-4-4-4-4-4-4-4-4-4--3-3-3-3--4-4--3--x--4-4-4-4--3-3-3-3-|
D|-4-4-4-4-4-4-4-4-4-4-4-4-4-4-4-4-4--4-4-4-4--5-5--4--x--5-5-5-5--4-4-4-4-|
A|-2-2-2-2-2-2-2-2-2-2-2-2-2-2-2-2-2--4-4-4-4--5-5--4--x--5-5-5-5--4-4-4-4-|
E|------------------------------------2-2-2-2--3-3--2--x--3-3-3-3--2-2-2-2-|
'The beaten and the bruised..'

[Verse Part 2]
e|-3-333-3-xx-2-2-|---------------------|-3-333-3-xx-2-2-|--------------------|
B|-3-333-3-xx-2-2-|---------------------|-3-333-3-xx-2-2-|--------------------|
G|-4-444-4-xx-3-3-|-4444----------------|-4-444-4-xx-3-3-|-4444-6666-7777-----|
D|-5-555-5-xx-4-4-|-4444-7777-5555-4444-|-5-555-5-xx-4-4-|-4444-6666-7777-7777|
A|-5-555-5-xx-4-4-|-2222-7777-5555-4444-|-5-555-5-xx-4-4-|-2222-4444-5555-7777|
E|-3-333-3-xx-2-2-|------5555-3333-2222-|-3-333-3-xx-2-2-|----------------5555|
'And we know not what we do..'

[Chorus]
e|-------------------------------------------------------|
B|-------------------------------------------------------|
G|---------------777777----------------------2-2---------|
D|-555555-777777-777777-444444-555555-777777-4-4-4-------|
A|-555555-777777-555555-444444-555555-777777-4-4-2-7-5-4-|
E|-333333-555555--------222222-333333-555555-2-2---5-3-2-|
'To the sky, to the ground..'


e|------------------------------------------------------------------|
B|------------------------------------------------------------------|
G|---------------777777---------------------------------------------|
D|-555555-777777-777777-444444-555555-777777-999999999999-----------|
A|-555555-777777-555555-444444-555555-777777-999999999999--5-5-7777-|
E|-333333-555555--------222222-333333-555555-777777777777--3-3-5555-|
'There'll be no victims..'

[Chorus Part 2]
e|-2-2------------5-5----3333----2-2------------5-5-|
B|-3-3-xx-7777-xx-5-5-xx-3333-xx-3-3-xx-7777-xx-5-5-|
G|-4-4-xx-7777-xx-6-6-xx-4444-xx-4-4-xx-7777-xx-6-6-|
D|-4-4-xx-7777-xx-7-7-xx-5555-xx-4-4-xx-7777-xx-7-7-|
A|-2-2-xx-5555-xx-7-7-xx-5555-xx-2-2-xx-5555-xx-7-7-|
E|----------------5-5----3333-------------------5-5-|
'and when we fall..'


e|-2-2------------5-5----3333----2-2------------2-|
B|-3-3-xx-7777-xx-5-5-xx-3333-xx-3-3-xx-7777-xx-2-|
G|-4-4-xx-7777-xx-6-6-xx-4444-xx-4-4-xx-7777-xx-3-|
D|-4-4-xx-7777-xx-7-7-xx-5555-xx-4-4-xx-7777-xx-4-|
A|-2-2-xx-5555-xx-7-7-xx-5555-xx-2-2-xx-5555-xx-4-|
E|----------------5-5----3333-------------------2-|
'And when we roam..'

[Fill]
e|-----------------------|
B|-----------------------|
G|-----------------------|
D|-9-xxx-9-xxx-9-xxx-9-x-|
A|-9-xxx-9-xxx-9-xxx-9-x-|x1
E|-7-xxx-7-xxx-7-xxx-7-x-|

[Solo]
e|-----------------------------------------------------|------------|
B|------------1212-------------------------------------|------------|
G|--------9h11----11--9--9---9---9h11p9--9---------11--|------------|
D|-9h11h12-------------12--12--12------12-12-11-9-8----|-----9-11-9-| Backing
A|-----------------------------------------------------|---9--------|  Horn bit
E|-----------------------------------------------------|-7----------|


e|--------------------------------------------------------/14-12--|
B|------------1212---------------1415---12h14/15\14\12\11---------|
G|--------9h11----11---------9h11----11---------------------------|
D|-9h11h12------------9h11h12-------------------------------------|
A|----------------------------------------------------------------|
E|----------------------------------------------------------------|


e|---------------------------------------------------------------|
B|-15-12—12------------------------------------------------------|
G|------14--14-11-14-11--11----------------------------14-15\11--| Not 100%
D|---------------------14--14-12-14/15/16\14-12--12h14-----------| with this part
A|---------------------------------------------14----------------|  
E|---------------------------------------------------------------|


e|---------------------------------------------------/15-14-12-----|
B|------11--11-12b---12-14-15\---15-15-14-12-11-12-11---------(15)-| Leave the   
G|-11-11—11------11----------11------------------------------------|  last note
D|-----------------------------------------------------------------|  out to play
A|-----------------------------------------------------------------|  bass solo
E|-----------------------------------------------------------------|  in time

[Bass solo]
e|--------------------------------------------------------------------|
B|--------------------------------------------------------------------| Second
G|--------------------------------------------------------------------|  part is 
D|-------------------------------------------------------444444-3-2---|   off..
A|-2---2-4444-5555---2---2-5555-4444---2---2-4444-5555---222222-1-2---|
E|---2-----------------2-----------------2----------------------------|

[Bridge Part 1] - x2
e|--------------------------------------|
B|--------------------------------------|
G|-4-44-444-7-77-777-9-99-999--11-9-7-9-|
D|-4-44-444-7-77-777-9-99-999--11-9-7-9-|
A|-2-22-222-5-55-555-7-77-777--9--7-5-7-|
E|--------------------------------------|
'Now, with the line drawn in the wet sand..'


e|-------------------------------------|
B|-------------------------------------|
G|-4-44-444-7-77-777-------------------|
D|-4-44-444-7-77-777-5-55-555-7-77-777-|
A|-2-22-222-5-55-555-5-55-555-7-77-777-|
E|-------------------3-33-333-5-55-555-|
'Whatever these lyrics are..'

[Bridge Part 2]
e|---------------------------------------------------------------------------|
B|---------------------------------------------------------------------------|
G|------------------------------xx---xx-11-xx-9-xx-7-xx---xx-11-xx-9-xx-7-xx-|
D|-555555-555555-777777-777777--xx-9-xx-11-xx-9-xx-7-xx-9-xx-11-xx-9-xx-7-xx-|
A|-555555-555555-777777-777777--xx-9-xx-9--xx-7-xx-5-xx-9-xx-9--xx-7-xx-5-xx-|x2
E|-333333-333333-555555-555555-----7--------------------7--------------------|
'They're coming after all of us..'


e|----------------------------------------------|
B|----------------------------------------------|
G|-----------------------------3333333333333333-|
D|-5-55-555-5-55-7-77-777-7-77-4444444444444444-|
A|-5-55-555-5-55-7-77-777-7-77-4444444444444444-|
E|-3-33-333-3-33-5-55-555-5-55-2222222222222222-|
'So how will we fight..'

[Chorus Part 2]
e|-2-2------------5-5----3333----2-2------------5-5-|
B|-3-3-xx-7777-xx-5-5-xx-3333-xx-3-3-xx-7777-xx-5-5-|
G|-4-4-xx-7777-xx-6-6-xx-4444-xx-4-4-xx-7777-xx-6-6-|
D|-4-4-xx-7777-xx-7-7-xx-5555-xx-4-4-xx-7777-xx-7-7-|
A|-2-2-xx-5555-xx-7-7-xx-5555-xx-2-2-xx-5555-xx-7-7-|
E|----------------5-5----3333-------------------5-5-|
'and when we fall..'


e|-2-2------------5-5----3333----2-2------------2-|
B|-3-3-xx-7777-xx-5-5-xx-3333-xx-3-3-xx-7777-xx-2-|
G|-4-4-xx-7777-xx-6-6-xx-4444-xx-4-4-xx-7777-xx-3-|
D|-4-4-xx-7777-xx-7-7-xx-5555-xx-4-4-xx-7777-xx-4-|
A|-2-2-xx-5555-xx-7-7-xx-5555-xx-2-2-xx-5555-xx-4-|
E|----------------5-5----3333-------------------2-|
'And when we roam..'


e|-------------------------------------|
B|---------777-8-7---------------------|
G|---6-7-9---------9-7-----6-7-6-------|
D|-9---------------------9-------9-8-9-|
A|-------------------------------------|
E|-------------------------------------|


e|--------------------------------------------------------------|
B|--------------------------------------------------------------|
G|--67--677-6--------------------666-7-9-7-6--777-9-7-6-----6---|
D|-9---9------9------9-9-9-988-8------------------------9-8---9-|
A|--------------999-9-------------------------------------------|
E|--------------------------------------------------------------|



************************************

| x    Dead note
| /    Slide up
| h    Hammer-on
| p    Pull-off
| \    Slide down
| (n)  Ghost note
| b    Bend
| —  

| b    Bend
 ************************ 

            
            
Suggest correction
Creating personal tab
Creating personal tab
You can edit any tab online and save it as your Personal.

You can edit, replace or remove any tab part or add personal notes – all changes will be seen only by you.

Personal tabs can be accessed anytime from any device, even offline.
Learn more »
Give kudos to tab author, rate the tab!
1 2 3 4 5
comments
print report bad tab
guest
You may want to rate the tab now too:
select rating
Wanna post a correction for this tab? Suggest correction